Creed - One Last Breath Chords & Tabs

 

One Last Breath Chords & Tabs

Creed Chords & Tabs

Version: 16 Type: Tab 0 ratings
1 star 2 stars 3 stars 4 stars 5 stars
comments

One Last Breath Tab

Standard Tuning
from low to high (EADGBE)
Key

h-hammer on
p-pull off
P.M.-paml mute
Harm.-harmonic

Intro

Riff A (clean)

E----2------5------0h2-------------------------------------
B----------------------3---------2--3-3h5-------5p3p2-3----
G-------------------------0--------------------------------
D----0---0-----0-------------------------------------------
A----------------------------0--------------0-------------0
E----------------------------------------------------------

E-------------------------------------------------3--2-----
B------------3-----2h3----------------------3--------------
G-----4-----------------4-------------0--------2-----------
D--------------------------4-------0-----0-----------------
A---------2-----2------------------------------------------
E------------------------------3---------------------------

E---2------3------2--0h2p2---------------------------------
B----------3---------------3-----------2--2h3p2------------
G------------------------------------2----------2-----0----
D---0---0-----0--------------------2---------------4-------
A-----------------------------4--0-------------------------
E----------------------------------------------------------

E------------2--------------------3--------
B----------2---2--------------------3------
G-------4--------4------------0-------0----
D-----4------------0--------0------------0-
A---2---------------------2----------------
D-----------------------3------------------
                                     End Riff A

Verse
Play Riff A 2 times

Chorus

Figure 1

E----2---2---2---------0-------0---0--0--0----------
B----3---3---3---------0-------0---0--0--0---3--3--3
G----2---2---2---0--0--3-------0---2--2--2---0--0--0
D----0---0---0---0--0--4-----------4--4--4---0--0--0
A----------------------4-----------4--4--4---x--x--x
E----------------------2-----2---------------3--3--3

E---2---2h3--2----------0------0--0--0--0---------
B---3---3----3----------0------0--0--0--0--3--3--3
G---2---2----2---0--0---3------0--2--2--2--0--0--0
D---0---0----0---0--0---4---------4--4--4--0--0--0
A-----------------------4---------4--4--4--x--x--x
E-----------------------2----2-------------3--3--3
                                  End Figure 1

Interlude
Play Riff A

Verse 2
Play Riff A 2 times

Chorus
(distortion)
        Harm.
E-------------
B-------------
G-------------
D---0---3.3---
A-------------
E-------------

Figure 2
[ Tab from: http://www.guitartabs.cc/tabs/c/creed/one_last_breath_tab_ver_16.html ]
E---------------------------------------------------------
B---3----3--3--3------------------------------------------
G---2----2--2--2-----------------------4--4--4--4---------
D---0----0--0--0---4--4----4--4--4--4--4--4--4--4--5--5--5
A------------------4--4----4--4--4--4--2--2--2--2--5--5--5
E------------------2--2----2--2--2--2--------------3--3--3
                                                End Figure 2

play figure 2 
2 times

E---------------------------
B---------------------------
G---4--4--4-----------------
D---4--4--4--5--5--5--5--5-5
A---2--2--2--5--5--5--5--5-5
E------------3--3--3--3--3-3

E---------------------------
B---------------------------
G---4--4--4-----------------
D---4--4--4--5--5--5--5--5-5
A---2--2--2--5--5--5--5--5-5
E------------3--3--3--3--3-3

Bridge

E---------------------2---2--2--2--2---2--2---2--2--2---2
B---------------------3---3--3--3--3---3--3---3--3--3---3
G----------4-----2----2---2--2--2--2---2--2---2--2--2---2
D--5---4---0-----0----0---0--0--0--0---0--0---0--0--0---0
A--2---2---x-----x---------------------------------------
E--0---0---3-----3---------------------------------------

E--------------------------------------------------------
B--------------------------------------------------------
G---2---2--2--2---4---4--4-------------------------------
D---2---2--2--2---2---2--2--5---5--5--5--5--5--5--5--5--5
A---0---0--0--0---2---2--2--5---5--5--5--5--5--5--5--5--5
E---------------------------3---3--3--3--3--3--3--3--3--3

Play that 2 times

the violin part that follows

E----------------------------------------
B----------------------------------------
G-------4---2~~~-------------------------
D----4-----------5--4~~~~----------------
A----------------------4-~~~--4--5--5~~~~~
E----------------------------------------

Play Figure 1 1 time

play figure 2 3 times

E---------------------------
B---------------------------
G---4--4--4-----------------
D---4--4--4--5--5--5--5--5-5
A---2--2--2--5--5--5--5--5-5
E------------3--3--3--3--3-3

E---------------------------
B---------------------------
G---4--4--4-----------------
D---4--4--4--5--5--5--5--5-5
A---2--2--2--5--5--5--5--5-5
E------------3--3--3--3--3-3

Outro

E---2------5------0h2-------------------------------
B---------------------3-------2--3h5------5p3p2-3---
G-----------------------0---------------------------
D---0---0-----0-------------------------------------
A--------------------------0----------0------------0
E---------------------------------------------------

E-----------------------------------------3------------
B------------3-----2h3-----------------------3---------
G-----4-----------------4-----------0--2---------------
D-------------------------4------0---------------------
A--------2------2--------------------------------------
E-----------------------------3------------------------
Comments