Creed - One Last Breath Chords & Tabs

 

One Last Breath Chords & Tabs

Creed Chords & Tabs

Version: 15 Type: Tab 0 ratings
1 star 2 stars 3 stars 4 stars 5 stars
comments

One Last Breath Tab

   
One Last Breath-Creed
Weathered

Gtr. 1 
E A D G B E

Gtr. 2
D A D G B E

( ) = harmonic


Intro: Riff A

e-2---5----0h2---------------------------
b--------------3-----2-3h5---5p3p2-3-----
g----------------0-----------------------
d-0-0---0--------------------------------
a------------------0-------0---------0---
e----------------------------------------

e-----------------------------3-2--------
b-----3---2h3-------------3--------------
g-4-----------4-------0-----2------------
d---------------4---0---0----------------
a---2---2--------------------------------
e-----------------3----------------------

e-2---3---2-0h2p0------------------------
b-----3-----------3---------2-2h3p2------
g-------------------------2---------2---0
d-0-0---0---------------2-------------4--
a-------------------4-0------------------
e----------------------------------------

e---------2---------------3--------------
b-------2---2---------------3------------
g-----4-------4---------0-----0----------
d---4-----------0-----0---------0--------
a-2-----------------2--------------------
e-----------------3----------------------

Verse 1: Riff A x2

Chorus: Fig. 1

e-2----2----2-----0-----------0-0----0----0-----------------0-----
b-3----3----3-----0-----------0-0----0----0-3-3-3--------3--0-----
g-2----2----2-0-0-3-----------0-4----4----4-0-0-0--------0--0-----
d-0----0----0-0-0-4-------------4----4----4-0-0-0--------0--0-----
a-----------------4-------------2----2----2-x-x-x--------x--------
e-----------------2---------2---------------3-3-3--------3--------

e-2----2h3----2-----0-------0---0----0----------------------------
b-3----3------3-0-0-0-------0-0-0----0-3-3-3----------------------
g-2----2------2-0-0-3-------3-0-4----4-0-0-0----------------------
d-0----0------0-0-0-4-------4-0-4----4-0-0-0----------------------
a-------------------4-------4---2----2-x-x-x----------------------
e-------------------2-------2----------3-3-3----------------------

Interlude/Verse 2: Riff A x3.5, then

gtr. 1

e---------2---------------3--------------
b-------2---2---------------3------------
g-----4-------4---------0-----0----------
d---4-----------0-----0---------0--------
a-2-----------------2--------------------
e-----------------3----------------------

gtr. 2
[ Tab from: http://www.guitartabs.cc/tabs/c/creed/one_last_breath_tab_ver_15.html ]
e----------------------------------------
b-------------------------------3--------
g----------------------------------------
d-----------------------0-(3.3)----------
a----------------------------------------
d----------------------------------------

Chorus: Fig. 2 (gtr. 2)

x2
e-----------------------------------------------------------------
b-3-----3-----3--3------------------------------------------------
g-2-----2-----2--2-------------------4-----4----4-4---------------
d-0-----0-----0--0-4---4----4-4-4-4--4-----4----4-4-5--5--5-5-5-5-
a-0-----0-----0--0-4---4----4-4-4-4--2-----2----2-2-5--5--5-5-5-5-
d-0-----0-----0--0-4---4----4-4-4-4-----------------5--5--5-5-5-5-

before bridge:

e-----------------------------------------------------------------
b-----------------------------------------------------------------
g-4---4--4--4--------------------4----4--4--4---------------------
d-4---4--4--4--5---5-5-5-5-5-5-5-4----4--4--4--5----5-5-5-5-5-5-5-
a-2---2--2--2--5---5-5-5-5-5-5-5-2----2--2--2--5----5-5-5-5-5-5-5-
d--------------5---5-5-5-5-5-5-5---------------5----5-5-5-5-5-5-5-

Bridge: ...Sad eyes follow me...

e----------------------2-----2-2---2-2-2-2-2-2-2-2----2----2--2---
b----------------------3-----3-3---3-3-3-3-3-3-3-3----3----3--3---
g----------------------2-----2-2---2-2-2-2-2-2-2-2----2----2--2---
d-5----4----9----7-----0-----0-0---0-0-0-0-0-0-0-0----0----0--0---
a-2----2----5----5-----0-----0-0---0-0-0-0-0-0-0-0----0----0--0---
d-2----2----5----5-----0-----0-0---0-0-0-0-0-0-0-0----0----0--0---

e-----------------------------------------------------------------
b------------------------------------8--8---8----8-8---8--8-8-8-8-
g-2----2---2-2--4----4--4------------7--7---7----7-7---7--7-7-7-7-
d-2----2---2-2--4----4--4-----5------5--5---5----5-5---5--5-5-5-5-
a-0----0---0-0--2----2--2-----5------5--5---5----5-5---5--5-5-5-5-
d-----------------------------5------5--5---5----5-5---5--5-5-5-5-

Outro:

gtr. 1

e-2---5---0h2--------------------------------------------------3--
b-------------3-----2-3-5---5p3p2-3-------3---2h3---------------3-
g---------------0---------------------4-----------4-------0-2-----
d-0-0---0-------------------------------------------4---0---------
a-----------------0-------0---------0---2---2---------------------
e-----------------------------------------------------3-----------


thatís all

right from july guitar one if any of you wanna bitch
lol

trevor jones
timmy91199@yahoo.ca
Comments