Creed - One Last Breath Chords & Tabs

 

One Last Breath Chords & Tabs

Creed Chords & Tabs

Version: 14 Type: Tab 0 ratings
1 star 2 stars 3 stars 4 stars 5 stars
comments

One Last Breath Tab

   
#Creed One Last Breath.
#Tab done by Jim Tessier jim_tessier@msn.com
#Song is copyrighted by Creed and their record company. I did not wright this song.
#Standard tuning. Chords used are D, Dsus4, A, G/B, Bm, G. You can substitute with bar chords
#and song will sound ok. Tabbed this using an Accustic guitar. Enjoy


    D  Dsus4 D                  A               G/B
4/4
E||--2--5--0-2h----------------------------------|
B||--------------2-----------2--3--5--2----------|
G||*-------------------3--------------0----------|
D||*-0--0--0-------------------------------------|
A||-----------------------0--------0--0-----2----|
E||----------------------------------------------|

              G                    D Dsus4 D Dsus4 D

E|---------------------------3--2--2--3-----2H-3P-2----------|
B|-3--2-3h-----3-----3----------------------------------3----|
G|----------------------0------------------------------------|
D|------------------------0--------0--0-----0----------------|
A|----2------------------------------------------------------|
E|-------------3-------------0-------------------------------|

  A                                            Bm
[ Tab from: http://www.guitartabs.cc/tabs/c/creed/one_last_breath_tab_ver_14.html ]
E|---------------------------------------------------|
B|----2-------------2H-3P-2---------------------3----|
G|-2-----2----------------------2------------------4-|
D|----------2---------------------2------------------|
A|----0-------2---------------------2---0-2----------|
E|---------------------------------------------------|

                     G

E|-------2----------------------------3-----------||
B|----------3-------------3--------------3--------||
G|-------------4-------------0--------------0----*||
D|-4----------------------------0----------------*||     2x
A|----2-------------------------------------------||
E|------------------0-3------------3--------------||

     D            F#         Bm         G

E||--2-2-2-2-X(2)-X--X--X----X--X---------------||
B||--3-3-3-3-x(3)-2--2--X(2)-2--2--X(2)-2--2----||
G||*-2-2-2-2-x(2)-3--3--X(3)-4--4--X(4)-3--3---*||
D||*---------x(0)-4--4--X(4)-4--4--X(4)-5--5---*|| 4x
A||---------------4--4--X(4)-2--2--X(2)-5--5----||
E||--------------(2)(2)-X(2)(2)(2)-X(2)(3)(3)---||

    E    Bm   A   D          A      Bm    G        D

E||----------------2-2-2-2-2-----------------------||-2--|
B||-------2-2--2---3-3-3-3-3--2-2-2--2-2-X-2-2-2-2-||-3--|
G||*------4-4--2---2-2-2-2-2--2-2-2--4-4-X-3-3-3-3*||-2--| 2x end with D
D||*-2-2--4-4--2--------------2-2-2--4-4-X-5-5-5-5*||-0--|
A||--2-2--2-2------------------------2-2-0-5-5-5-5-||----|
E||--------------------------------------0---------||----|



Violin part:

    D          Bm           G

E|-------------------------------------|
B|-------------------------------------|
G|-------4~~---2~~--0~~----------------|
D|--4~~-----------------4~~------------|
A|--------------------------4-4~~-/5~~-|
E|-------------------------------------|
Comments