Creed - One Last Breath Chords & Tabs

 

One Last Breath Chords & Tabs

Creed Chords & Tabs

Version: 13 Type: Tab 0 ratings
1 star 2 stars 3 stars 4 stars 5 stars
comments

One Last Breath Tab

Band: Creed
Song: One Last Breath
Album: Weathered
Tuning: Standard
Tabbed by: Me
Email: CreedGtrst41@cs.com

Verse (clean)(fingerpicked)

E-2----5----0h2-------------------------------------------------------------------3-2-|
B----------------3------2-3-3h5---3h5p3p2h3-0-----3----2h3------------------3----0----|
G------------------2--------------------------------------------4---------0-----------|
D-0-0----0--------------------------------------------------------0----0-----0--------|
A---------------------0----------0--------------2-2----2------------------------------|
E---------------------------------------------------------------------3---------------|
[ Tab from: http://www.guitartabs.cc/tabs/c/creed/one_last_breath_tab_ver_13.html ]
E-2----3-2-2h3p2--------------------------------------2-------------------3----------|
B------------------3----------2-2h3p2---------------2---2-------------------3--------|
G---------------------------2-------------0-------4--------4------------0------0-----|
D-0-0--------------------2-------------4-------4-------------4--------0----------0---|
A---------------------0---------------------2-----------------------2----------------|
E-----------------------------------------------------------------3------------------|

Chorus (clean)
E--2-----0------0------0-|
B--3-----0------2------0-|
G--2-----3------4------4-|
D--0-----4------4------5-|
A--------4------2------5-|
E--------2-------------3-|

Chorus (distorted)
E----------------------------|
B----------------------------|
G-x-x-7-------------4--------|
D-x-x-7------4------4------5-|
A-x-x-5------4------2------5-|
E------------2-------------3-|

Bridge (distorted)
e---------------------------------------------------------|
B---------------------------------------------------------|
G---------4-----------------7-----------------4-----------|
D-2-------4--------7--------7--------7--------4--------5--|
A-2-------2--------7--------5--------7--------2--------5--|
E-0----------------5-----------------5-----------------3--|

Questions or Comments feel free to email me otherwise have fun its another great song by 
a great band.
Comments