Creed - One Last Breath Chords & Tabs

 

One Last Breath Chords & Tabs

Creed Chords & Tabs

Version: 6 Type: Bass Tab 0 ratings
1 star 2 stars 3 stars 4 stars 5 stars
comments

One Last Breath Bass Tab

this is as good as it gets people. i would say im about 98% correct. if you have
any questions or comments please feel free to email me at damnian00@hotmail.com.
enjoy!


EADG tuning!!!!

intro- guitar plays for sixteen measures then bass comes in during the
interlude-..."maybe six feet ain't so far down"....begin!!!!


interlude  1:02
g-----------------------------------------------------------------
d-----------------------------------------------------------------
a-5-5--5-----------2-2--2-------------5-5--5----------------------
e----------5--5-0---------0///3---0///5-------0-2///5-5\\\2--2--2-

              verse
g------------+-----------------------------------------------------
d------------+-----------------------------------------------------
a------------+5-5--5-----------2-2--2-----5-5--5------------------
e-3-3--3--0-3+----------5--5-0----------3----------0-2///5-5\\\2--2


g-----------------------------------------------------------------
d-----------------------------------------------------------------
a----------------5-5--5---------------2-2--2----------------5-5--5
e--2--3-3--3--0-3---------0-2///5-5\\\2------0-2-3--3h5-5h7-------

                         chorus 1
g----------------------+-------------------------------------------
d----------------------+-------------------------------------------
a----------------------+-5-5--5--5-----------2-2--2--2-------------
e--0-3/5---0-3/7---7\3-+-----------2-2-0-2-0-----------3-3--3-5-3-2

[ Tab from: http://www.guitartabs.cc/tabs/c/creed/one_last_breath_btab_ver_6.html ]
g------------------------------------------------------------------
d------------------------------------------------------------------
a-5-5--5--5-----------2-2--2--2---------------5-5--5--5-----------2
e-----------2-2-0-2-0-----------3-3--3-3-3-3------------2-2-0-2-0--


g------------------------------------------------------------------
d------------------------------------------------------------------
a-2--2--2--------------5-5--5--5-----------2-2--2-2-2--------------
e---------3-3--3-5-3-2-----------2-2-0-2-0------------3-3-3--3-3-3-



g------------------------------------------------------------------
d------------------------------------------------------------------
a-----2-2-2-2--2-2-2---------------2-2-2-2--2-2-2------------------
e-3-0----------------3--3-3-3--3-3----------------3--3-3-3--3-3-3-3


 bridge  "sad eyes follow me!!!!"   
g------------------------------------------------------------------
d---------------------------0-0-2-3-0--0-0-------------------------
a-----------------5-5-5-5-5----------------4-3-2-0--0--0-0-0--2-2-2
e-0--0-0--7-7-5-5--------------------------------------------------


                                repeat one more time!!!!!
g------------------------------------------------------------------
d------------------------------------------------------------------
a-2-2--------------------------------------------------------------
e-----3-3-3-3--3-3-3-3--3-3-3-3------------------------------------



interlude- guitar strumming solo

chorus- repeat chorus but skip end part(you'll know when to stop),
and thats it!!!!!!!!  

good job, keep it up. Creed rules!!!!!!!


chorus not 2 sure in this think its rite
g-------------------------------------------------------------
d-------------------------------------------------------------
a-5-55-55-5-55-55-------------------------2-22-22-------5--555
e-----------------3-33-33-3-33-33-5-55-55---------3-333-------
Comments