Creed - One Last Breath Chords & Tabs

 

One Last Breath Chords & Tabs

Creed Chords & Tabs

Version: 3 Type: Bass Tab 0 ratings
1 star 2 stars 3 stars 4 stars 5 stars
comments

One Last Breath Bass Tab

Just another creed bass tab from yours truly. 
Verse/intro (please come now)
G--------------------------------------------------------------------------------
D----000-----------------------------------------------------------------------
A--------------00---222-------------------------------------------------------
D-----------------------------555----------------------------------------------

Chorus (Hold me now......)
G-----------------------------------------------------------------------------------------
D----------------------------------------------------------------------------------------
A-----------------------222-------------------------------------------------------------
D----000-----44-------------------55---------------------------------------------------
[ Tab from: http://www.guitartabs.cc/tabs/c/creed/one_last_breath_btab_ver_3.html ]
Bridge(sad eyes follow me......)
G-----------------------------------------------------------------------------------------
D-----------------------------------------------------------------------------------------
A-22----22--------2--0--------00-22--------------------------------------------------
D----00-----00-22--------0--------------5---------------------------------------------

Violin part(if you are playing n a band, i think this is a good bass solo.)
G--------------4----2---0---------------------------------------------------------------
D--------4------------------4-----------------------------------------------------------
A------------------------------4/5-5----------------------------------------------------
D-----------------------------------------------------------------------------------------

Song structure :
Verse
chorus
verse
chorus
bridge
violin part
chorus
verse

Enjoy! :)
Comments