Creed - One Chords & Tabs

 

One Chords & Tabs

Creed Chords & Tabs

Version: 3 Type: Bass Tab 0 ratings
1 star 2 stars 3 stars 4 stars 5 stars
comments

One Bass Tab

One
Artist:  Creed
Album:  My Own Prison
______________________________________________________________________
Normal tuning for once...(EADG)
Verse...As always, I'm just submitting the roots, figure out the 
tailnotes...
G|-------------------------------------------------|
D|-------------------------------------------------|
A|--4-4-4-4-4-4-4-----------7--7-7-7-7-------------|
E|---------------5--5-5-5--5----------7--7-7-7--7--|
Chorus
G|------------------------------------------------|
D|------------------------------------------------|
A|--2--2-2-2--2-----------4--4-4-4--4-------------|
E|-------------2--2-2-2--2-----------4--4-4-4--4--|
If you get stuck with a few notes, just email 
me...wylddkarrde@hotmail.com
I'll be glad to help you seeing as this is a quite difficult song...

Michael Wilson
"Division by zero"


[ Tab from: http://www.guitartabs.cc/tabs/c/creed/one_btab_ver_3.html ]
Comments