Creed - Ode Chords & Tabs

 

Ode Chords & Tabs

Creed Chords & Tabs

Version: 4 Type: Tab 0 ratings
1 star 2 stars 3 stars 4 stars 5 stars
comments

Ode Tab

   
Ode-Creed
My own Prison

Drop D:
D A D G B E

* = harmonic

Intro:

x4
e-----------------------------------------------------------------
b-----------------------------------------------------------------
g-----------------------------------------------------------------
d-0-0-0-7-0-6~~~~~~~~~~~~~~~~~~~~-0-0-0-7-0-6-0-4~~~~~~~~~~~~~~~~-
a-----------------------------------------------------------------
d-----------------------------------------------------------------

then,

e-----------------------------------------------------------------
b-----------------------------------------------------------------
g-----------------------------------------------------------------
D-0-0-0-7-0-6-0-4-0-5-0-2-0-3-2-1-0-0-0-7-0-6-0-4-0-5-0-2-0-3-2-1
a-----------------------------------------------------------------
d-----------------------------------------------------------------

e-----------------------------------------------------------------
b--------------------------------*7-7*-------*7-7*-------*7-7-7-7*
g-----------------------------------------------------------------
d-0-0-0-7-0-6-0-4-0-5-0-2-0-3-2-1-----0-0-0-0-----0-0-0-0---------
a-----------------------------------------------------------------
d-----------------------------------------------------------------

Verses: ...hang me, watch awhile...

x4
e-----------------------------------------------------------------
b-----------------------------------------------------------------
g-----------------------------------------------------------------
d-----------------------------------------------------------------
A-0-0-0-7-0-6-0-4-0-5-0-2-0-3-2-1-0-0-0-7-0-6-0-4-0-5-0-2-0-3-2-1-
D-0-0-0-7-0-6-0-4-0-5-0-2-0-3-2-1-0-0-0-7-0-6-0-4-0-5-0-2-0-3-2-1-

Chorus: ...one step on your own...

e-----------------------------------------------------------------
b-----------------------------------------------------------------
g-----------------------------------------------------------------
d-----------------------------------------------------------------
a-0-------0-----0-0-----0-2-------2-------2-----2-2-----------2-4-
d-0-------0-----0-0-----0-2-------2-------2-----2-2-----------2-4-

e-----------------------------------------------------------------
b-----------------------------------------------------------------
g-----------------------------------------------------------------
d---------------------------------------------4-------------------
a-5--5-5-5----5-5--5--5---0-0----5--------3-5---5----3-5-7-3------
d-5--5-5-5----5-5--5--5---0-0-------0-0----------------------3h4--
[ Tab from: http://www.guitartabs.cc/tabs/c/creed/ode_tab_ver_4.html ]
e-----------------------------------------------------------------
b-----------------------------------------------------------------
g-----------------------------------------------------------------
d-----------------------------------------------------------------
a-0-------0-----0-0-----0-2-------2-------2-----2-2-----------2-4-
d-0-------0-----0-0-----0-2-------2-------2-----2-2-----------2-4-

e-----------------------------------------------------------------
b-----------------------------------------------------------------
g-----------------------------------------------------------------
d---------------------------------------3-4-5-------3-4-5---------
a-5--5-5-5----5-5--5--5---0-0-----3-4-5-------3-4-5-------3-5-3---
d-5--5-5-5----5-5--5--5---0-0-------------------------------------

Interlude:

x2
e-----------------------------------------------------------------
b-----------------------------------------------------------------
g-----------------------------------------------------------------
d---7-6---7-6---7-6---7-6---7-6---7-6---7-6-----------------------
a---5-4---5-4---5-4---5-4---5-4---5-4---5-4-------1-2-3---3-2-1---
d-0-----0-----0-----0-----0-----0-----0-----0-0---1-2-3---3-2-1---

pm
e-----------------------------------------------------------------
b-----------------------------------------------------------------
g-----------------------------------------------------------------
D-0-0-0-7-0-6-0-4-0-5-0-2-0-3-2-1-0-0-0-7-0-6-0-4-0-5-0-2-0-3-2-1
a-----------------------------------------------------------------
d-----------------------------------------------------------------

e-----------------------------------------------------------------
b--------------------------------*7-7*-------*7-7*-------*7-7-7-7*
g-----------------------------------------------------------------
d-0-0-0-7-0-6-0-4-0-5-0-2-0-3-2-1-----0-0-0-0-----0-0-0-0---------
a-----------------------------------------------------------------
d-----------------------------------------------------------------

After Chorus #2

e-----------------------------------------------------------------
b-----------------------------------------------------------------
g-----------------------------------------------------------------
d-------3-4-5-------3-4-5---------------3-4-5-------3-4-5---------
a-3-4-5-------3-4-5-------3-5-3---3-4-5-------3-4-5-------3-5-3---
d-----------------------------------------------------------------

Pm interlude

Outro:

e-----------------------------------------------------------------
b-----------------------------------------------------------------
g-----------------------------------------------------------------
d-----------------------------------------------------------------
a-0-----------0-0-1-2-3---3-2-1-0--------------0-0-1-2-3--3-2-1---
d-0-----------0-0-1-2-3---3-2-1-0--------------0-0-1-2-3--3-2-1---

e-----------------------------------------------------------------
b-----------------------------------------------------------------
g-----------------------------------------------------------------
d-----------------------------------------------------------------
a-0---------------------------------------------------------------
d-0---------------------------------------------------------------

thatís all

trevor jones
timmy91199@yahoo.ca
Comments