Creed - Ode Chords & Tabs

 

Ode Chords & Tabs

Creed Chords & Tabs

Version: 1 Type: Tab 0 ratings
1 star 2 stars 3 stars 4 stars 5 stars
comments

Ode Tab

   
 song: Ode


Artist: Creed


Album: My Own Prison


Tab arranged: bugsbunny549  
 
 Intro:   Play 4x                  
E--------------------|------------------|
B--------------------|------------------|
G--------------------|------------------|
D-0-0-0-7-0-6--------|--0-0-0-7-0-6-0-4-|
A--------------------|------------------|
D--------------------|------------------|


  Riff A: Play 3x                                          ^-Harmonics       
E------------------------------------|-------------------------------------------|
B------------------------------------|-------------------------------------------|
G------------------------------------|-------------------------------------------|
D--0-0-0-7-0-6-0-4-0-5-0-2-0-3-2-1---|-4^-4^-0-0-0-0-4^-4^-0-0-0-0-4^-4^-4^-4^---|
A------------------------------------|-------------------------------------------|
D------------------------------------|-------------------------------------------|
                
                      


 Verse  8x
e-----------------------------------|
B-----------------------------------|
G-----------------------------------|
D--0-0-0-7-0-6-0-4-0-5-0-2-0-3-2-1--|
A--0-0-0-7-0-6-0-4-0-5-0-2-0-3-2-1--|
D--0-0-0-7-0-6-0-4-0-5-0-2-0-2-3-1--|  
 
  Chorus   (strum chords)
E----------------------------------------------------------| 
B----------------------------------------------------------|
G--------4-----7-------------------------------------------|
D--0-----2-----5------------------4-0----------2-----------|
A--0-----2-----5-----5------3-5----------3-5-----3---------|
D--0-----2-----5--------0-0----------------------------3b--|
[ Tab from: http://www.guitartabs.cc/tabs/c/creed/ode_tab.html ]
E--------------------------------------------------| 
B--------------------------------------------------|
G------4----7--------------------------------------|
D--0---2----5------------3-4-5----------3-4-5------|
A--0---2----5--3-4-5-----------3-4-5---------3-5-3-|
D--0---2----5--------------------------------------|

E----------------------------------------------------|----------------|
B----------------------------------------------------|----------------|
G--------4-----7-------------------------------------|-------4----7---|
D--0-----2-----5-----------------4-0--------2--------|--0---2----5----|
A--0-----2-----5----5------3-5--------3-5-----3------|--0---2----5----|
D--0-----2-----5-------0-0-----------------------3b--|--0---2----5----|



  
 
 Riff B:   Play 2x
E------------------------------------------------------------------------|
B------------------------------------------------------------------------|
G------------------------------------------------------------------------|
D-0-12-11-0-12-11-0-12-11-0-12-11-0-12-11-0-12-11-0-12-11-0-1-2-3-3-2-1--|
A-0-12-11-0-12-11-0-12-11-0-12-11-0-12-11-0-12-11-0-12-11-0-1-2-3-3-2-1--|
D-0-12-11-0-12-11-0-12-11-0-12-11-0-12-11-0-12-11-0-12-11-0-1-2-3-3-2-1--|

  
 
 Riff C:   Play 4x


E-------------------------------------------|
B-------------------------------------------|
G-------------------------------------------|
D-----------3-4-5------------3-4-5----------|
A--3-4-5-----------3-4-5-------------3-5-3--|
D-------------------------------------------|  
 
 Song Lay out:


Intro
Riff A
Verse
Chourus
Riff B
Riff A
Verse
Chourus
Riff C
Riff B 

** If you have any questions or comments please feel free to e-mail me at 
Tamaplayer549@netscape.net!!**
Comments