Creed - Never Die Chords & Tabs

 

Never Die Chords & Tabs

Creed Chords & Tabs

Version: 2 Type: Bass Tab 0 ratings
1 star 2 stars 3 stars 4 stars 5 stars
comments

Never Die Bass Tab

   
CREED -  NEVER DIE
Album -  Human clay

Tabbed by Mark Linwood (rlinwood@uq.net.au) (member of btabarmy)

Here is my tab of never die.  The song is tabbed in its entirity.  Listen to 
the song for exact timing.  Drop me a email about what you think.  Oh and 
other creed tabs are on the way. 

Drop D tunning  D A D G

Intro:
|----------------|
|-6~-----5~------|
|----6~------5~--|
|----------------|

Verse 1:
|---------------|----------------|--------5h7--------|-----------3/5/7|
|---------------|----------------|-----------5h7-5---|----------------|
|---------5----5|----------------|------5---------5h7|----------------|
|-6\-1--5----0--|-6-1/-5-0--0-0--|6-1-5--------------|-6--1--5--0-----|

|---------------|----------------|-------------------|-----------5h7--|
|---------------|----------------|-------------------|--------------5-|
|---------5-----|-------5---/5---|----------5--------|----------------|
|-6--1/5---0-1-0|-6-1/5----0---5-|-6--1--5-----------|-6--1--5--0-----|

|----------------|--------5h7----|-------------------|----------------|
|----------------|-----------5---|-------------------|----------------|
|--------5-/---/5|------------5h7|----------5--------|----------------|
|-6--1/5-----0---|-6-1-5-0-------|-6-1/5-------------|-6--1-5-0--00-0-|

Chorus:
|---------------------------|---------------------------|
|---------------------------|---------------------------|
|---------------------------|---------------------------|
|-6h7p6-1h2p1-5h6p5-0-00-00-|-6h7p6-1h2p1-5h6p5-0-00-00-|

|---------------------------|---------------------------|
|----------------------0--0-|----------------------0----|
|---------------------------|-------6h7p6---------------|
|-6h7p6-1h2p1-5h6p5-0-0--0--|-6h7p6-------5h6p5-0-0--00-|

Verse 2:
|----------------|---------------|-------------------|--------------|
|----------------|---------------|-------------------|---------7----|
|-------5-----5--|---------------|-----------/5------|---6--------7-|
|-6-1-5---0------|-6-1-5-0----12\|-6-1-5-0--0---0----|-6---5-0------|

|-------------|----------------|------------------|--------5h7-------|
|-------------|----------------|------------------|-----------5h7----|
|-------------|---6----5-5h7---|---------/5-------|---6---5-------5h7|
|-6-1-5-0-----|-6----5------0-0|-6-1-5-0---0--7\--|-6---5------------|

|-------------|-----------------|
|-------------|-----------------|
|-------------|---6---5---------|
|-6-1-5-0-----|-6---5---0-00-00-|

Chorus:
|---------------------------|---------------------------|
|---------------------------|---------------------------|
|---------------------------|---------------------------|
|-6h7p6-1h2p1-5h6p5-0-00-00-|-6h7p6-1h2p1-5h6p5-0-00-00-|
[ Tab from: http://www.guitartabs.cc/tabs/c/creed/never_die_btab_ver_2.html ]
|---------------------------|---------------------------|
|----------------------0--0-|----------------------0----|
|---------------------------|-------6h7p6---------------|
|-6h7p6-1h2p1-5h6p5-0-0--0--|-6h7p6-------5h6p5-0-0--00-|

Bridge:
|-------------|--------------|-------------|--------------|
|-------------|--------------|-------------|--------------|
|-5-5--5--55--|-5-5--5--55---|-5-5--5--55--|-5-5--5--55---|
|0------------|0-------------|0------------|0-------------|

|-------------|--------------|-------------|-----5h75h75p4-|
|-------------|--------------|-------------|--------------5|
|-5-5--5--55--|-5-5--5--55---|-5-5--5--55--|-5-5-----------|
|0------------|0-------------|0------------|0--------------|

|-------------|--------------|-------------|----5h7-7-5p4--|
|-------------|--------------|-------------|-------------5-|
|-------------|--------------|-------------|---------------|
|0------------|0-------------|0------------|0--------------|

|-------------|--------------|-------------|---------------|
|-------------|--------------|-------------|---------------|
|-------------|--------------|-------------|---------------|
|0---7-7h8p7--|0-5--7-7h8p7--|0-5--7-7h8p7-|0--5--7-8-7\---|

|-------------|--------------|-------------|-----------------|
|-------------|--------------|-------------|-----------------|
|-------------|--------------|-------------|-----3h555-3-3p2-|
|0-5-7-7h8p7--|0-5--8-888-88-|0-5--7-7h8p7-|0-5-0-----------5|

|-------------|--------------|-------------|---------------|
|-------------|--------------|-------------|---------------|
|-------------|--------------|-------------|---------------|
|0-5-7-7h8p7--|0-5--7-7h8p7--|0-5--7-7h8p7-|0--5--7-00-00--|

Final Chorus:
|---------------------------|---------------------------|
|---------------------------|--------------------0------|
|---------------------------|---------------------------|
|-6h7p6-1h2p1-5h6p5-0-00-00-|-6h7p6-1h2p1-5h6p5-0-00-00-|

|---------------------------|---------------------------|
|----------------------0--0-|----------------------0----|
|---------------------------|-------6h7p6---------------|
|-6h7p6-1h2p1-5h6p5-0-0--0--|-6h7p6-------5h6p5-0-0--00-|

|---------------------------|----------------------------|
|---------------------------|----------------------0--0-0|
|---------------------------|----------------------------|
|-6h7p6-1h2p1-5h6p5-0-00-00-|-6h7p6-1h2p1-5h6p5-0-0--0-0-|

|---------------------------|---------------------------|
|----------------------0--0-|----------------------0~---|
|---------------------------|-------6h7p6---------------|
|-6h7p6-1h2p1-5h6p5-0-0--0--|-6h7p6-------5h6p5-0-0--00-|

Outro
|----------------|-------------|
|-6~-----5~------|6~-----5~----|
|----6~------5~--|---6~-----5~-|
|----------------|-------------|

Tabbed by Mark Linwood (rlinwood@uq.net.au) I will reply to all emails.
Comments