Creed - My Sacrifice Chords & Tabs

 

My Sacrifice Chords & Tabs

Creed Chords & Tabs

Version: 8 Type: Tab 0 ratings
1 star 2 stars 3 stars 4 stars 5 stars
comments

My Sacrifice Tab

   
Artist: Creed
Song: My Sacrifice
Album: Weathered
Written by: Mark Tremonti
Tabbed by: T.D.
Tuning: Drop-D(D-A-D-G-B-E-)

I know this tab isn't 100% right because he's tuned DADDAD but this is easier.

Intro(clean with delay)

E|--------------------------------------------|
B|----------3-----------------------------0---|
G|----2-------2---------------------14--------|
D|------4-------4----------------12----12-----|
A|--2-----2-------------2-----10--------------|
D|--------------------------------------------|
   ^                                                   ^
   some people like to play this cause it sounds closer. but i like to play this.

E|-----------------------------------------|
B|-----------------------------------------|
G|-----------11--------------------7-------|
D|-----11------11------------7-------7-----|
A|---9------------9-------5------------5---|
D|-9------9---------9---5-------5--------5-|

E|---------------------------------------------------|
B|---------------------------------------------------|
G|--7-7-7\6-6/7----7-7-7\6-6--11-11-11-11/12-12-12---|
D|--x-x-x\x-x/x----x-x-x\x-x--x--x--x--x-/x--x--x----|
A|--5-5-5\4-4/5----5-5-5\4-4--9--9--9--9-/10-10-10---|
D|---------------------------------------------------|

E|--------------------------------------------|
B|----------3-----------------------------0---|
G|----2-------2---------------------14--------|
D|------4-------4----------------12----12-----|
A|--2-----2-------------2-----10--------------|
D|--------------------------------------------|

Verse(distortion)

E|--------------------------------------|
B|--------------------------------------|
G|--7-7-7\6-6/7-7-7/9\7-7-7\6-6/7-7-7---|
D|--x-x-x\x-x/x-x-x/x\x-x-x\x-x/x-x-x---|
A|--5-5-5\4-4/5-5-5/7\5-5-5\4-4/5-5-5---|
D|--0-0-0-0-0-0-0-0-0-0-0-0-0-0-0-0-0---|
              
E|-9--9--9--9--9--9--9--9--9---5-5-5-5-5-5-5-5-5---|
B|-9--9--9--9--9--9--9--9--9---5-5-5-5-5-5-5-5-5---|
G|-11-11-11-11-11-11-11-11-11--7-7-7-7-7-7-7-7-7---|
D|-11-11-11-11-11-11-11-11-11--7-7-7-7-7-7-7-7-7---|
A|-9--9--9--9--9--9--9--9--9---5-5-5-5-5-5-5-5-5---|
D|-9--9--9--9--9--9--9--9--9---5-5-5-5-5-5-5-5-5---|

Chorus(distortion)
[ Tab from: http://www.guitartabs.cc/tabs/c/creed/my_sacrifice_tab_ver_8.html ]
E|--------------------------------------------------|
B|--------------------------------------------------|
G|--7-7-7--14-12-11-11-9-9-9-9-9-9-9-9-9--6-6-6-6---|
D|--x-x-x--0--0--0--0--0-0-0-0-0-0-0-0-0--x-x-x-x---|
A|--5-5-5--0--0--0--0--0-0-0-0-0-0-0-0-0--4-4-4-4---|
D|--0-0-0--0--0--0--0--0-0-0-0-0-0-0-0-0--0-0-0-0---|

E|-9--9--5-5----------------------|
B|-9--9--5-5----------------------|
G|-11-11-7-7----------------------|
D|-11-11-7-7----5-5-5-5-3-3-0-0---|
A|-9--9--5-5----5-5-5-5-3-3-0-0---|
D|-9--9--5-5----5-5-5-5-3-3-0-0---|

interlude(distortion)

E|----------------------------------------------|
B|----------------------------------------------|
G|--11-11\9---9-9\7---7-7\6---4/6-7-7-7\6-6/9---|
D|--x--x-\x---x-x\x---x-x\x---x/x-x-x-x\x-x/x---|
A|--9--9-\7---7-7\5---5-5\4---2/4-5-5-5\4-4/7---|
D|--0--0--0---0-0-0---0-0-0---0-0-0-0-0-0-0-0---|

E|--------------------------------------|
B|--------------------------------------|
G|--15-15-15-15---15-15-15-15-----------|
D|--x--x--x--x--0-x--x--x--x--0-0-0-0---|
A|--13-13-13-13-0-13-13-13-13-0-0-0-0---|
D|--------------0-------------0-0-0-0---|
              pm.             .....
Bridge(clean with flanger)

E|------------------------------------------------------|
B|------------------------------------------------------|
G|--7-7-7--14-12-11-11-9-9-9-9-9-9-9-9-9--6-6-6-6-6-6---|
D|--x-x-x--0--0--0--0--0-0-0-0-0-0-0-0-0--x-x-x-x-x-x---|
A|--5-5-5--0--0--0--0--0-0-0-0-0-0-0-0-0--4-4-4-4-4-4---|
D|--0-0-0--0--0--0--0--0-0-0-0-0-0-0-0-0--0-0-0-0-0-0---|

E|-9----------------9------5-5-5-5-5-5-5-5-5---|
B|-9--------------9--------5-5-5-5-5-5-5-5-5---|
G|-11----------11----------7-7-7-7-7-7-7-7-7---|
D|-11-------11-------------7-7-7-7-7-7-7-7-7---|
A|-9------9----------------5-5-5-5-5-5-5-5-5---|
D|-9-----------------------5-5-5-5-5-5-5-5-5---|

when coming out of the bridge do this

Fill(distortion)

E|------------------------------------------------------|
B|------------------------------------------------------|
G|------------------------------------------------------|
D|--0-0-0-0-0-------------------------------------------|
A|--0-0-0-0-0-------------------------------------------|
E|--0-0-0-0-0-3.5*--------------------------------------|
  pm.........

that's it figure out the order yourself
Comments