Creed - My Sacrifice Chords & Tabs

 

My Sacrifice Chords & Tabs

Creed Chords & Tabs

Version: 5 Type: Tab 0 ratings
1 star 2 stars 3 stars 4 stars 5 stars
comments

My Sacrifice Tab

   
Group:Creed
Song My Sacrifice
tabbed:Fernando Delgado

Gtr I (D A D A D D) - 'Clean'
Gtr II (D A D A D D) - 'Acoustic'
Gtr III (D A D A D D) - 'Electric 1'
Gtr IV (D A D A D D) - 'Electric 2'
Gtr V (D A D A D D) - 'Slighty Distorted'

  Q=73
  Gtr I
  S S S S S S S S +Q   +E   E  S  S  S S +S  S  S  S  +Q.   S S S S S S Q  +Q.   S S
|---------0-----------------------------------------------------0-0-0-0-0--(0)-----0-
|-----------0--------------------------0-(0)-0------------------0-0-0-0-0--(0)-----0-
|---4---------4---------------------12---------12-----------0-0-5-4-4-5-5--(5)-----5-
|-----4---------4-(4)--(x)/------12---------------12-(12)---0-0-0-0-0-0-0--(0)---0-0-
|-2-----2-------------------0-10----------------------------0-0-5-4-4-5-5--(5)---5-5-
|-----------------------------------------------------------0-0-0-0-0-0-0--(0)---0-0-

  Gtr II
  W                            H                       Q.   S S S S S S Q  +Q.   S S
|---------------------------------------------------------------0-0-0-0-0--(0)-----0-
|---------------------------------------------------------------0-0-0-0-0--(0)-----0-
|-----------------------------------------------------------0-0-5-4-4-5-5--(5)-----5-
|-----------------------------------------------------------0-0-0-0-0-0-0--(0)---0-0-
|-----------------------------------------------------------0-0-5-4-4-5-5--(5)---5-5-
|-----------------------------------------------------------0-0-0-0-0-0-0--(0)---0-0-


  Gtr I
  S S S S Q  +E  S  S  +E  E S S S S S S S S +Q.   E  S   S  S S +S  S  S  S  +Q
|-0-0-0-0-0--(0)-0-------------------0---------------------------------------------|
|-0-0-0-0-0--(0)-0---------------------0-----------------------0-(0)-0-------------|
|-5-4-4S9-9--(9)-9S10-(10)-0---0---------4------------------12---------12----------|
|-0-0-0-0-0--(0)-0---------0-----4---------4-(4)---------12---------------12-(12)--|
|-5-4-4S9-9--(9)-9S10-(10)-0-2-----2---------------0-10----------------------------|
|-0-0-0-0-0--(0)-0---------0-------------------------------------------------------|

  Gtr II
| S S S S Q  +E  S  S  +E  E S S S S S S S S +Q.   E  S   S  S S +S  S  S  S  +Q
|-0-0-0-0-0--(0)-0-------------------0---------------------------------------------|
|-0-0-0-0-0--(0)-0---------------------0-----------------------0-(0)-0-------------|
|-5-4-4S9-9--(9)-9s10-(10)-0---0---------4------------------12---------12----------|
|-0-0-0-0-0--(0)-0---------0-----4---------4-(4)---------12---------------12-(12)--|
|-5-4-4S9-9--(9)-9s10-(10)-0-2-----2---------------0-10----------------------------|
|-0-0-0-0-0--(0)-0---------0-------------------------------------------------------|

  Gtrs III, IV
                                                     <
  W                          W                        W
|----------------------------------------------------------------------------------|
|----------------------------------------------------------------------------------|
|----------------------------------------------------------------------------------|
|----------------------------------------------------[0]---------------------------|
|----------------------------------------------------[0]---------------------------|
|----------------------------------------------------[0]---------------------------|


  Gtrs III, IV
  S  S  S  S  E. S S S  S  S S S  S   S  S  S  S  S  E. S S S  S  S S S S S
|-0-(0)-0-(0)-0--0---0-(0)-0---0-(0)-(0)-0-(0)-0-(0)-0--0---0-(0)-0---------|
|-0-(0)-0-(0)-0--0---0-(0)-0---0-(0)-(0)-0-(0)-0-(0)-0--0---0-(0)-0---------|
|-5s=4--4s=5--5--5---4s=5--5---5s=7s==5--5s=4--4s=5--5--5---4s=5--5---4-0-0-|
|-0-(0)-0-(0)-0--0---0-(0)-0---0-(0)-(0)-0-(0)-0-(0)-0--0---0-(0)-0---0-0-0-|
|-5s=4--4s=5--5--5---4s=5--5---5s=7s==5--5s=4--4s=5--5--5---4s=5--5---4-0-0-|
|-0-(0)-0-(0)-0--0-0-0-(0)-0-0-0-(0)-(0)-0-(0)-0-(0)-0--0-0-0-(0)-0-0-0-0-0-|


                                                  PM|
  Q  E. S S S E E  S  S  Q   E.  S  S  S  E  S  S S S
|----0--0-0-0-0-0--0--0--0---0---0--0--0--0--0--0-----|
|----0--0-0-0-0-0--0--0--0---0---0--0--0--0--0--0-----|
|----4--4-4-4-4-4--x--x-12--12--12-12-12-12-12-12-----|
|-4--4--4-4-4-4-4S12-12-12--12--12-12-12-12-12-12-0-0-|
|-2--2--2-2-2-2-2S10-10-10--10--10-10-10-10-10-10-0-0-|
|-------------------------------------------------0-0-|


                     PM        PM                             PM        PM
    S  S  S  S  E. S S S  S  S S S  S   S    S  S  S  S  E. S S S  S  S S S S S
||--0-(0)-0-(0)-0--0---0-(0)-0---0-(0)-(0)-|-0-(0)-0-(0)-0--0---0-(0)-0--------|
||o-0-(0)-0-(0)-0--0---0-(0)-0---0-(0)-(0)-|-0-(0)-0-(0)-0--0---0-(0)-0--------|
||--5s=4--4s=5--5--5---4s=5--5---5s=7s==5--|-5s=4--4s=5--5--5---4s=5--5---4-0-0|
||--0-(0)-0-(0)-0--0---0-(0)-0---0-(0)-(0)-|-0-(0)-0-(0)-0--0---0-(0)-0---0-0-0|
||o-5s=4--4s=5--5--5---4s=5--5---5s=7s==5--|-5s=4--4s=5--5--5---4s=5--5---4-0-0|
||--0-(0)-0-(0)-0--0-0-0-(0)-0-0-0-(0)-(0)-|-0-(0)-0-(0)-0--0-0-0-(0)-0-0-0-0-0|


                                                    PM|
  Q  E. S S S E E  S  S    Q   E.  S  S  S  E  S  S S S
|----0--0-0-0-0-0--0--0-|--0---0---0--0--0--0--0--0------||
|----0--0-0-0-0-0--0--0-|--0---0---0--0--0--0--0--0-----o||
|----4--4-4-4-4-4--x--x-|-12--12--12-12-12-12-12-12------||
|-4--4--4-4-4-4-4S12-12-|-12--12--12-12-12-12-12-12-0-0--||
|-2--2--2-2-2-2-2S10-10-|-10--10--10-10-10-10-10-10-0-0-o||
|-----------------------|---------------------------0-0--||


    Gtrs I, III, IV
    Q  E. S  E E S S S S E S S E S S S S E S S S S
||--0--0--0-/7-5-4-------------0-0-0-0-0-0-0-0----|
||o-0--0--0--0-0-0-------------0-0-0-0-0-0-0-0----|
||--0--0--0--0-0-0-0-0-0-------0-0-0-0-0-0-0-0-0-0|
||--0--0--0--0-0-0-0-0-0-7-7-7-7-7-7-7-7-7-7-7-0-0|
||o-0--0--0--0-0-0-0-0-0-4-4-4-4-4-4-4-4-4-4-4-0-0|
||--0--0--0--0-0-0-0-0-0-----------------------0-0|


                              1.
                                            PM    PM
   Q   E.  S  S  S   S  S S S E +S  S E E S S S S S S +S  S S S
|----------------------------------------------------------------||
|---------------------------------------------------------------o||
|----------------------12----------------------------------------||
|-11--11--11-11h12--12-12-9-0-5-(5)-5-5-5-5-0-5s3-0-3-(3)-3-5-3--||
|--9---9---9--9-(9)--9--9-9-0-5-(5)-5-5-5-5-0-5s3-0-3-(3)-3-5-3-o||
|--9---9---9--9-(9)--9--9-9-0-5-(5)-5-5-5-5-0-5s3-0-3-(3)-3-5-3--||


  2.
                PM
  E +S  S E E S S S S S S +E  S S
|-------------------------------0--|
|-------------------------------0--|
|-------------------------------0--|
|-5-(5)-5-5-5-5-0-5s3-0-3-(3)-0-0--|
|-5-(5)-5-5-5-5-0-5s3-0-3-(3)-0-0--|
|-5-(5)-5-5-5-5-0-5s3-0-3-(3)-0-0--|


  Gtrs III, IV
  S  S  S  S  E. S S S  S  S S S  S   S  S  S  S  S  E. S S S  S  S S S S S
|-0-(0)-0-(0)-0--0---0-(0)-0---0-(0)-(0)-0-(0)-0-(0)-0--0---0-(0)-0---------|
|-0-(0)-0-(0)-0--0---0-(0)-0---0-(0)-(0)-0-(0)-0-(0)-0--0---0-(0)-0---------|
|-5s=4--4s=5--5--5---4s=5--5---5s=7s==5--5s=4--4s=5--5--5---4s=5--5---4-0-0-|
|-0-(0)-0-(0)-0--0---0-(0)-0---0-(0)-(0)-0-(0)-0-(0)-0--0---0-(0)-0---0-0-0-|
|-5s=4--4s=5--5--5---4s=5--5---5s=7s==5--5s=4--4s=5--5--5---4s=5--5---4-0-0-|
|-0-(0)-0-(0)-0--0-0-0-(0)-0-0-0-(0)-(0)-0-(0)-0-(0)-0--0-0-0-(0)-0-0-0-0-0-|


                                                  PM|
  Q  E. S S S E E  S  S  Q   E.  S  S  S  E  S  S S S
|----0--0-0-0-0-0--0--0--0---0---0--0--0--0--0--0-----|
|----0--0-0-0-0-0--0--0--0---0---0--0--0--0--0--0-----|
|----4--4-4-4-4-4--x--x-12--12--12-12-12-12-12-12-----|
|-4--4--4-4-4-4-4S12-12-12--12--12-12-12-12-12-12-0-0-|
|-2--2--2-2-2-2-2S10-10-10--10--10-10-10-10-10-10-0-0-|
|-------------------------------------------------0-0-|


                     PM        PM                           PM        PM
    S  S  S  S  E. S S S  S  S S S  S   S  S  S  S  S  E. S S S  S  S S S S S
||--0-(0)-0-(0)-0--0---0-(0)-0---0-(0)-(0)-0-(0)-0-(0)-0--0---0-(0)-0---------|
||o-0-(0)-0-(0)-0--0---0-(0)-0---0-(0)-(0)-0-(0)-0-(0)-0--0---0-(0)-0---------|
||--5s=4--4s=5--5--5---4s=5--5---5s=7s==5--5s=4--4s=5--5--5---4s=5--5---4-0-0-|
||--0-(0)-0-(0)-0--0---0-(0)-0---0-(0)-(0)-0-(0)-0-(0)-0--0---0-(0)-0---0-0-0-|
||o-5s=4--4s=5--5--5---4s=5--5---5s=7s==5--5s=4--4s=5--5--5---4s=5--5---4-0-0-|
||--0-(0)-0-(0)-0--0-0-0-(0)-0-0-0-(0)-(0)-0-(0)-0-(0)-0--0-0-0-(0)-0-0-0-0-0-|


                                                  PM|
  Q  E. S S S E E  S  S  Q   E.  S  S  S  E  S  S S S
|----0--0-0-0-0-0--0--0--0---0---0--0--0--0--0--0------||-|
|----0--0-0-0-0-0--0--0--0---0---0--0--0--0--0--0-----o||-|
|----4--4-4-4-4-4--x--x-12--12--12-12-12-12-12-12------||-|
|-4--4--4-4-4-4-4S12-12-12--12--12-12-12-12-12-12-0-0--||-|
|-2--2--2-2-2-2-2S10-10-10--10--10-10-10-10-10-10-0-0-o||-|
|-------------------------------------------------0-0--||-|


    Gtrs I, III, IV
    Q  E. S  E E S S S S E S S E S S S S E S S S S
||--0--0--0-/7-5-4-------------0-0-0-0-0-0-0-0----|
||o-0--0--0--0-0-0-------------0-0-0-0-0-0-0-0----|
||--0--0--0--0-0-0-0-0-0-------0-0-0-0-0-0-0-0-0-0|
||--0--0--0--0-0-0-0-0-0-7-7-7-7-7-7-7-7-7-7-7-0-0|
||o-0--0--0--0-0-0-0-0-0-4-4-4-4-4-4-4-4-4-4-4-0-0|
||--0--0--0--0-0-0-0-0-0-----------------------0-0|


                              1.
                                            PM    PM
   Q   E.  S  S  S   S  S S S E +S  S E E S S S S S S +S  S S S
|----------------------------------------------------------------||
|---------------------------------------------------------------o||
|----------------------12----------------------------------------||
|-11--11--11-11h12--12-12-9-0-5-(5)-5-5-5-5-0-5s3-0-3-(3)-3-5-3--||
|--9---9---9--9-(9)--9--9-9-0-5-(5)-5-5-5-5-0-5s3-0-3-(3)-3-5-3-o||
|--9---9---9--9-(9)--9--9-9-0-5-(5)-5-5-5-5-0-5s3-0-3-(3)-3-5-3--||


  2.
  E +S  S E E S S S S S S +S  S S S
|-----------------------------------|
|-----------------------------------|
|-----------------------------------|
|-5-(5)-5-5-5-5-0-5s3-0-3-(3)-3-3-3-|
|-5-(5)-5-5-5-5-0-5s3-0-3-(3)-3-3-3-|
|-5-(5)-5-5-5-5-0-5s3-0-3-(3)-3-3-3-|


    Gtrs III, IV
    PM          PM          PM          PM|
    E S  S  S S E S  S  S S E S  S  S S S S S  S  S S S  S  S  S  S  S  S S  4x
||----0-(0)-0-0---0-(0)-0-0---0-(0)-0-0-----0-(0)-0-0-0-(0)-0-(0)-0-(0)-0-0--||
||o---0-(0)-0-0---0-(0)-0-0---0-(0)-0-0-----0-(0)-0-0-0-(0)-0-(0)-0-(0)-0-0-o||
||----9s=7--7-7---7s=5--5-5---5s=4--4-4-----2s=4--4-4-5s=4--4s=7--7s=5--5-5--||
||----0-(0)-0-0---0-(0)-0-0---0-(0)-0-0-----0-(0)-0-0-0-(0)-0-(0)-0-(0)-0-0--||
||o---9s=7--7-7---7s=5--5-5---5s=4--4-4-----2s=4--4-4-5s=4--4s=7--7s=5--5-5-o||
||--0-0-(0)-0-0-0-0-(0)-0-0-0-0-(0)-0-0-0-0-0-(0)-0-0-0-(0)-0-(0)-0-(0)-0-0--||





[ Tab from: http://www.guitartabs.cc/tabs/c/creed/my_sacrifice_tab_ver_5.html ]
                                                                                          >
  PM            PM                               PM            PM--|
                                                               |-3-|
  E  S  S  S  S E  S  S  S  S  Q   E  S  S  S  S E  S  S  S  S E E E W        +W         +W
|----0--0--0--0----0--0--0--0---------0--0--0--0----0--0--0--0-----------------------
|----0--0--0--0----0--0--0--0---------0--0--0--0----0--0--0--0-----------------------
|---13-13-13-13---13-13-13-13--------13-13-13-13---13-13-13-13-----------------------
|----0--0--0--0----0--0--0--0---------0--0--0--0----0--0--0--0-------0--------(0)----
|---13-13-13-13---13-13-13-13-17\----13-13-13-13---13-13-13-13-------0--------(0)----
|-0--0--0--0--0-0--0--0--0--0-17\-----0--0--0--0-0--0--0--0--0-0-0-0-0--------(0)----

  Gtr I
  W                                W                                 W         W          Q   E S S  E E E S S
|---------------------------------------------0---0-0-0-/7-5-4--------|
|---------------------------------------------0---0-0-0--0-0-0--------|
|---------------------------------------------0---0-0-0--0-0-0-0-0----|
|---------------------------------------------0---0-0-0--0-0-0-0-0----|
|---------------------------------------------0---0-0-0--0-0-0-0-0----|
|---------------------------------------------0---0-0-0--0-0-0-0-0----|

  Gtr II
  W                                W                                 W         W          Q   E S S  E E E S S
|-----------------------------------------------0---0-0-0-/7-5-4--------|
|-----------------------------------------------0---0-0-0--0-0-0--------|           |-----------------------------------------------0---0-0-0--0-0-0-0-0----|
|-----------------------------------------------0---0-0-0--0-0-0-0-0----|
|-----------------------------------------------0---0-0-0--0-0-0-0-0----|
|-----------------------------------------------0---0-0-0--0-0-0-0-0----|


  Gtr I
  E S S E S S S S E S S   S  S  E  S  S  E  S  S S  S S S +S  S E
|-0-0-0-0-0-0-0-0-0-0-0------------------0--0--0--------------0---|
|-0-0-0-0-0-0-0-0-0-0-0------------------0--0--0--------0-(0)-----|
|-0-0-0-0-0-0-0-0-0-0-0------------------0--0--0------0---------0-|
|-7-7-7-7-7-7-7-7-7-7-7-/11-11-11-11-11-11-11-11---11-------------|
|-4-4-4-4-4-4-4-4-4-4-4---0--0--9--9--9--9--9--9-9----------------|
|-------------------------0--0--9--9--9--9--9--9------------------|

  Gtr II
  E S S E S S S S E S S   S  S  E  S  S  E  S  S S  S S S +S  S E
|-0-0-0-0-0-0-0-0-0-0-0------------------0--0--0--------------0---|
|-0-0-0-0-0-0-0-0-0-0-0------------------0--0--0--------0-(0)-----|
|-0-0-0-0-0-0-0-0-0-0-0------------------0--0--0------0---------0-|
|-7-7-7-7-7-7-7-7-7-7-7-/11-11-11-11-11-11-11-11---11-------------|
|-4-4-4-4-4-4-4-4-4-4-4---0--0--9--9--9--9--9--9-9----------------|
|-------------------------0--0--9--9--9--9--9--9------------------|


  Gtr I
  E  E  E S S S S S S  S  S S S E. S E S S  E S S +S  S S S E S S E S S S S E S S S S
|-5-----------------------------0--0-0-0-0-/7---7-(7)-7-7-7-0-0-0-0-0-0-0-0-0-0-0----
|-5-----5-5-5-5-5-5-5-(5)-5-5-5-0--0-0-0-0--0---0-(0)-0-0-0-0-0-0-0-0-0-0-0-0-0-0---
|-5-----5-5-5-5-5-5-5-(5)-5-5-5-0--0-0-0-0--0---0-(0)-0-0-0-0-0-0-0-0-0-0-0-0-0-0----
|-7-----7-7-7-7h9-9-9-(9)-7-7-7-0--0-0-0-0--0-0-0-(0)-0-0-0-7-7-7-7-7-7-7-7-7-7-7-0-0
|-5-(5)-5-5-5-5-5-5-5-(5)-5-5-5-0--0-0-0-0--0-0-0-(0)-0-0-0-4-4-4-4-4-4-4-4-4-4-4-0-0
|-5-(5)-5-5-5-5-5-5-5-(5)-5-5-5-0--0-0-0-0--0-0-0-(0)-0-0-0-----------------------0-0

 Gtr II
| E  E  E S S S S S S  S  S S S E. S E S S  E S S +S  S S S E S S E S S S S E S S S S
|-5-----------------------------0--0-0-0-0-/7---7-(7)-7-7-7-0-0-0-0-0-0-0-0-0-0-0----
|-5-----5-5-5-5-5-5-5-(5)-5-5-5-0--0-0-0-0--0---0-(0)-0-0-0-0-0-0-0-0-0-0-0-0-0-0----
|-5-----5-5-5-5-5-5-5-(5)-5-5-5-0--0-0-0-0--0---0-(0)-0-0-0-0-0-0-0-0-0-0-0-0-0-0----
|-7-----7-7-7-7h9-9-9-(9)-7-7-7-0--0-0-0-0--0-0-0-(0)-0-0-0-7-7-7-7-7-7-7-7-7-7-7-0-0
|-5-(5)-5-5-5-5-5-5-5-(5)-5-5-5-0--0-0-0-0--0-0-0-(0)-0-0-0-4-4-4-4-4-4-4-4-4-4-4-0-0
|-5-(5)-5-5-5-5-5-5-5-(5)-5-5-5-0--0-0-0-0--0-0-0-(0)-0-0-0-----------------------0-0


  Gtr I                                        Gtr III
                                                               PM|
   E  S  S  E  S  S S  S S S S S E E S S E S S S S S S  S   S  S S
|-----0--0--0--0--0-----------------------------------------------------|
|-----0--0--0--0--0--------0---0-0--------------------------------------|
|-----0--0--0--0--0------0---0---0-5-5-5-5-5-5-x-x-x-x---x-----x--------|
|-11-11-11-11-11-11---11---------0-7-7-7-7-7-7-x-x-x-x---x-----x--------|
|--9--9--9--9--9--9-9------------0-5-5-5-5-5-5-x-x-x-x---x-----x--------|
|--9--9--9--9--9--9--------------0-5-5-5-5-5-5-x-x-x-x-<2.6>-<2.6>-0-0--|

  Gtr II                                       Gtr IV
                                                               PM|
   E  S  S  E  S  S S  S S S S S E E S S E S S S S S S  S   S  S S
|-----0--0--0--0--0-----------------------------------------------------|
|-----0--0--0--0--0--------0---0-0--------------------------------------|
|-----0--0--0--0--0------0---0---0-5-5-5-5-5-5-x-x-x-x---x------x-------|
|-11-11-11-11-11-11---11---------0-7-7-7-7-7-7-x-x-x-x---x------x-------|
|--9--9--9--9--9--9-9------------0-5-5-5-5-5-5-x-x-x-x---x------x-------|
|--9--9--9--9--9--9--------------0-5-5-5-5-5-5-x-x-x-x-<2.6>-<2.6>-0-0--|


  Q  E. S  E E S S S S E S S E S S S S E S S S S
|-0--0--0-/7-5-4-------------0-0-0-0-0-0-0-0-----|
|-0--0--0--0-0-0-------------0-0-0-0-0-0-0-0-----|
|-0--0--0--0-0-0-0-0-0-------0-0-0-0-0-0-0-0-0-0-|
|-0--0--0--0-0-0-0-0-0-7-7-7-7-7-7-7-7-7-7-7-0-0-|
|-0--0--0--0-0-0-0-0-0-4-4-4-4-4-4-4-4-4-4-4-0-0-|
|-0--0--0--0-0-0-0-0-0-----------------------0-0-|


                                            PM    PM
   Q   E.  S  S  S   S  S S S E +S  S E E S S S S S S +S  S S S
|---------------------------------------------------------------|
|---------------------------------------------------------------|
|----------------------12---------------------------------------|
|-11--11--11-11h12--12-12-9-0-5-(5)-5-5-5-5-0-5s3-0-3-(3)-3-5-3-|
|--9---9---9--9-(9)--9--9-9-0-5-(5)-5-5-5-5-0-5s3-0-3-(3)-3-5-3-|
|--9---9---9--9-(9)--9--9-9-0-5-(5)-5-5-5-5-0-5s3-0-3-(3)-3-5-3-|


  Q  E. S  E E E E +E  S S E S S S S E S S S S
|----0--0-/7-5-4-0-(0)-0-0-0-0-0-0-0-0-0-0-0-0-|
|----0--0--0-0-0-0-(0)-0-0-0-0-0-0-0-0-0-0-0-0-|
|----0--0--0-0-0-0-(0)-0-0-0-0-0-0-0-0-0-0-0-0-|
|-0--0--0--0-0-0-7-(7)-7-7-7-7-7-7-7-7-7-7-0-0-|
|-0--0--0--0-0-0-4-(4)-4-4-4-4-4-4-4-4-4-4-0-0-|
|-0--0--0--0-0-0---------------------------0-0-|


   Q   E.  S  S  S   S  S S S E +S  S E E S S S S S S +S  S S S
|---------------------------------------------------------------|
|---------------------------------------------------------------|
|----------------------12---------------------------------------|
|-11--11--11-11h12--12-12-9-0-5-(5)-5-5-5-5-0-5s3-0-3-(3)-3-3-3-|
|--9---9---9--9-(9)--9--9-9-0-5-(5)-5-5-5-5-0-5s3-0-3-(3)-3-3-3-|
|--9---9---9--9-(9)--9--9-9-0-5-(5)-5-5-5-5-0-5s3-0-3-(3)-3-3-3-|


    PM          PM          PM          PM|
    E S  S  S S E S  S  S S E S  S  S S S S S  S  S S S  S  S  S  S  S  S S  3x
||----0-(0)-0-0---0-(0)-0-0---0-(0)-0-0-----0-(0)-0-0-0-(0)-0-(0)-0-(0)-0-0--||
||o---0-(0)-0-0---0-(0)-0-0---0-(0)-0-0-----0-(0)-0-0-0-(0)-0-(0)-0-(0)-0-0-o||
||----9s=7--7-7---7s=5--5-5---5s=4--4-4-----2s=4--4-4-5s=4--4s=7--7s=5--5-5--||
||----0-(0)-0-0---0-(0)-0-0---0-(0)-0-0-----0-(0)-0-0-0-(0)-0-(0)-0-(0)-0-0--||
||o---9s=7--7-7---7s=5--5-5---5s=4--4-4-----2s=4--4-4-5s=4--4s=7--7s=5--5-5-o||
||--0-0-(0)-0-0-0-0-(0)-0-0-0-0-(0)-0-0-0-0-0-(0)-0-0-0-(0)-0-(0)-0-(0)-0-0--||





  PM            PM
  E  S  S  S  S E  S  S  S  S  Q
|----0--0--0--0----0--0--0--0------|
|----0--0--0--0----0--0--0--0------|
|---13-13-13-13---13-13-13-13------|
|----0--0--0--0----0--0--0--0-x\\--|
|---13-13-13-13---13-13-13-13-x\\--|
|-0--0--0--0--0-0--0--0--0--0------|


                PM            PM--|
                              |-3-|
  E  S  S  S  S E  S  S  S  S E E E   W          +W
|----0--0--0--0----0--0--0--0-------|----------|--------|
|----0--0--0--0----0--0--0--0-------|----------|--------|
|---13-13-13-13---13-13-13-13-------|----------|--------|
|----0--0--0--0----0--0--0--0-------|-0--------|-(0)----|
|---13-13-13-13---13-13-13-13-------|-0--------|-(0)----|
|----0--0--0--0-0--0--0--0--0-0-0-0-|-0--------|-(0)----|

||  Q   E. S S  S  E E S S  E  E. S S S E S S S S Q      E  S   S   S   S   S  S S S E +S  S  S  S E S S +S  S E S S S S
|--0---0--0-5s=7--5-4------0--0--0-0-0-0-0-0-0-0-------------------------------------
|--0---0--0-0-(0)-0-0------0--0--0-0-0-0-0-0-0-0-------------------------------------
|--0---0--0-0-(0)-0-0------0--0--0-0-0-0-0-0-0-0-------------------------------------
|--0---0--0-0-(0)---0-0-0--7--7--7-7-7-7-7-7-0-0-------------------------------------
|--0---0--0-0-(0)---0-0-0--4--4--4-4-4-4-4-4-0-0-9-----------------------------------
|--0---0--0-0-(0)---0-0-0--------------------0-0-9-----------------------------------

------------------------------------------------------------------
------------------------------------------4-4-4-4-(4)-5-5-5-5-----
--------------------12-11---0-0-(0)-0--0--0-0-0-0-(0)-0-0-0-0-0-0-
-11-11--11--11h=12--11-11-0-0-0-(0)-0--0--0-0-0-0-(0)---0-0-0-0-0-
--9-(9)-(9)-(9)-(9)--9--9-0-0-5-(5)-5--5--5-5-0-0-(0)---5-5-5-0-0-
--9-(9)-(9)-(9)-(9)--9--9-0-0-5-(5)-5--5--5-5-5-5-(5)---5-5-5-0-0-
  


 Gtr V
  S  S  S S E S S  E S S +S  S Q
|-0-(0)-0-0-0-0-0-/7-7-7-(7)-7-0--|
|-0-(0)-0-0-0-0-0--0-0-0-(0)-0-0--|
|-0h=2--2-2-0-0-0--0-0-0-(0)-0-0--|
|-0-(0)-0-0-0-0-0--0-0-0-(0)-0-0--|
|-0-(0)-0-0-0-0-0--0-0-0-(0)-0-0--|
|-0-(0)-0-0-0-0-0--0-0-0-(0)-0-0--|


Duration Legend
---------------
W - whole; H - half; Q - quarter; E - 8th; S - 16th; T - 32nd; X - 64th; a - acciaccatura
+ - note tied to previous; . - note dotted; .. - note double dotted
Uncapitalized letters represent notes that are staccato (1/2 duration)
Irregular groupings are notated above the duration line
Duration letters will always appear directly above the note/fret number it represents the
duration for.  Duration letters with no fret number below them represent rests.  Multi-
bar rests are notated in the form Wxn, where n is the number of bars to rest for.  Low
melody durations appear below the staff

Tablature Legend
----------------
 h   - hammer-on
 p   - pull-off
 b   - bend
 pb  - pre-bend
 r   - bend release (if no number after the r, then release immediately)
 /\  - slide into or out of (from/to "nowhere")
 s   - legato slide
 S   - shift slide
  - natural harmonic
[n]  - artificial harmonic
n(n) - tapped harmonic
 ~   - vibrato
 tr  - trill
 T   - tap
 TP  - trem. picking
 PM  - palm muting
\n/  - tremolo bar dip; n = amount to dip
 \n  - tremolo bar down
 n/  - tremolo bar up
/n\  - tremolo bar inverted dip
 =   - hold bend; also acts as connecting device for hammers/pulls
 <>  - volume swell (louder/softer)
 x   - on rhythm slash represents muted slash
 o   - on rhythm slash represents single note slash

Misc Legend
-----------
 |  - bar
||  - double bar
||o - repeat start
o|| - repeat end
*|  - double bar (ending)
 :  - bar (freetime)
 $  - Segno
 &  - Coda
Tempo markers -  = BPM(8/16=s8/s16), where s8 = swing 8ths, s16 = swing 16ths

------------------------------------------------------------
Comments