Creed - My Sacrifice Chords & Tabs

 

My Sacrifice Chords & Tabs

Creed Chords & Tabs

Version: 3 Type: Tab 2 ratings
1 star 2 stars 3 stars 4 stars 5 stars
comments

My Sacrifice Tab

   
Creed
My Sacrifice
Weathered

Correct Tuning With Correct & Accurate Tab & Chords.


Tuning
D5
D5
A4
D4
A3
D3
---------------
Intro

D5|-----------------|
D5|------0----------|
A4|------4----------|
D4|------4----------|
A3|-2---------------|
D3|-----------------|


D5|-----------------|
D5|-----------------|
A4|-----------12----|
D4|-----------12----|
A3|-0----10---------|
D3|-----------------|

S=Slide
R=return

D5|--------------------------------|
D5|--------------------------------|
A4|-----5s--4s--5s--7s--9s-10------|
D4|--------------------------------|
A3|-----5s--4s--5s--7s--9s-10------|
D3|--------------------------------|

Then repeat intro first 2 tabs given above.


Distortion Entry
-------------------
            Over "D" Chord
D5|--------------------------------|
D5|--------------------------------|
A4|-----5s--4s--5s--5s--4s---------|
D4|--------------------------------|
A3|-----5s--4s--5s--5s--4s---------|
D3|--------------------------------|

           Over "Bm" Chord
D5|--------------------------------|
D5|--------------------------------|
A4|------------4s-5r4--------------|
D4|------------4-------------------|
A3|--2-----------------------------|
D3|--------------------------------|

           Over "G" Chord
D5|----------5----------------------|
D5|----------5----------------------|
A4|----------5----------------------|
D4|----------5----------------------|
A3|----------5----------------------|
D3|----------5----------------------|

Repeat same as above for whole song

(2.32)-(3.05)

i just want to say hello again........
[ Tab from: http://www.guitartabs.cc/tabs/c/creed/my_sacrifice_tab_ver_3.html ]
D5|-----0---0---0---0---0---0---0--------------|
D5|-----0---0---0-------0---0---0--------------|
A4|-----9s--7s--5s--4s--2s--4s--5s--7s--5s-----|
D4|-----0----0--0---0---0---0---0--------------|
A3|-----9s--7s--5s--4s--2s--4s--5s--7s--5s-----|
D3|-----0---0---0---0---0---0---0--------------|

(2.58)say hello again........(screaming part)
D5|-------------------0------------|
D5|-------------------8------------|
A4|-------------------0------------|
D4|-------------------8------------|
A3|-------------------0------------|
D3|-------------------0------------|

Repeat chords given above 

When you r with me im free...............

"D" Chord IN this tuning

D5|--------------------------------|
D5|--------------------------------|
A4|-------------7------------------|
D4|-------------7------------------|
A3|-----5--------------------------|
D3|--------------------------------|


"A" Chord IN this tuning

D5|--------------------------------|
D5|--------------------------------|
A4|-------------7------------------|
D4|-------------7------------------|
A3|-----4--------------------------|
D3|--------------------------------|


"Bm" Chord IN this tuning
D5|--------------------------------|
D5|--------------------------------|
A4|-------------4------------------|
D4|-------------4------------------|
A3|-----2--------------------------|
D3|--------------------------------|


"G" Chord IN this tuning
D5|-------------5------------------|
D5|-------------5------------------|
A4|-------------5------------------|
D4|-------------5------------------|
A3|-------------5------------------|
D3|-------------5------------------|

Thats all in the song
 
Any comments fire me at panasonciaaron@rediffmail.com
Enjoy!!!!!
Comments