Creed - My Own Prison Chords & Tabs

 

My Own Prison Chords & Tabs

Creed Chords & Tabs

Version: 8 Type: Tab

My Own Prison Tab

   my own prison tab by creed


    version acoustic guitar



|------------------------------------------------|
|-----3------3----3------------------------------|
|----2------2----2------------0------------5---5-|
|---0------0----0---------0h3---3---------3---3--|
|--0------0----------0h1----------0---3--3---3---|
|-0------0---------------------------3--3--------|

|------------------------------|
|------------------------------|
|------------------------------|
|---------5\4----------4p\2----|
|--0---0--------0---0----------|
|-0---0--------0---0-----------|



|------------------------------------------------|
|-----3------3----3------------------------------|
|----2------2----2------------0------------5---5-|
|---0------0----0---------0h3---3---------3---3--|
|--0------0----------0h1----------0---3--3---3---|
|-0------0---------------------------3--3--------|

|------------------------|   
|------------------------|
|------------------------|x 3
|---3---3-3---------0----|
|--3---3----5p3----------|
|-3---3---------5p3------|

|------------------------------------------------|
|-----3------3----3------------------------------|
|----2------2----2------------0------------5---5-|
|---0------0----0---------0h3---3---------3---3--|
|--0------0----------0h1----------0---3--3---3---|
|-0------0---------------------------3--3---3----|



|----------------------------------------------------|
|----------------------------------------------------|
|----5-5-5-5-5-5-5-4-4-4-4-4-4-4-3-3-3-3-3-3-3-3-----|
|----3-3-3-3-3-3-3-2-2-2-2-2-2-2-1-1-1-1-1-1-1-1-----|
|--3-3-3-3-3-3-3-3-2-2-2-2-2-2-2-1-1-1-1-1-1-1-1-----|
|--3-3-3-3-3-3-3-3-2-2-2-2-2-2-2-1-1-1-1-1-1-1-1-----|
[ Tab from: http://www.guitartabs.cc/tabs/c/creed/my_own_prison_tab_ver_8.html ]
|----------------------------------------------------|
|----------3-3-3-3-3-3-3-3-3-3-3---------------------|
|--3-3-3-3-2-2-2-2-2-2-2-2-2-2-2---------------------|
|--1-1-1-1-0-0-0-0-0-0-0-0-0-0-0---------------------|x 2
|--1-1-1-1-0-0-0-0-0-0-0-0-0-0-0---------------------|
|--1-1-1-1-0-0-0-0-0-0-0-0-0-0-0---------------------|


|------------------------------------------------|
|-----3------3----3------------------------------|
|----2------2----2------------0------------5---5-|
|---0------0----0---------0h3---3---------3---3--|
|--0------0----------0h1----------0---3--3---3---|
|-0------0---------------------------3--3--------|

|------------------------|   
|------------------------|
|------------------------|x 4
|---3---3-3---------0----|
|--3---3----5p3----------|
|-3---3---------5p3------|

|------------------------------------------------|
|-----3------3----3------------------------------|
|----2------2----2------------0------------5---5-|
|---0------0----0---------0h3---3---------3---3--|
|--0------0----------0h1----------0---3--3---3---|
|-0------0---------------------------3--3---3----|



|----------------------------------------------------|
|-----3--3-3-3---------------------------------------|
|-----2--2-2-2-------------5--5----------------------|
|-----0--0-0-0--3--3-------3--3--3------------0------|x 4
|--0--0--0-0-0--1--1-0-0-3-3--3--3-3h5-3-------------|
|--0--0--0-0-0-----------3-3--3----------5-3---------|



|----------------------------------------------------|
|----------------------------------------------------|
|----5-5-5-5-5-5-5-4-4-4-4-4-4-4-3-3-3-3-3-3-3-3-----|
|----3-3-3-3-3-3-3-2-2-2-2-2-2-2-1-1-1-1-1-1-1-1-----|
|--3-3-3-3-3-3-3-3-2-2-2-2-2-2-2-1-1-1-1-1-1-1-1-----|
|--3-3-3-3-3-3-3-3-2-2-2-2-2-2-2-1-1-1-1-1-1-1-1-----|

|----------------------------------------------------|
|----------3-3-3-3-3-3-3-3-3-3-3---------------------|
|--3-3-3-3-2-2-2-2-2-2-2-2-2-2-2---------------------|
|--1-1-1-1-0-0-0-0-0-0-0-0-0-0-0---------------------|x 2
|--1-1-1-1-0-0-0-0-0-0-0-0-0-0-0---------------------|
|--1-1-1-1-0-0-0-0-0-0-0-0-0-0-0---------------------|





   steve,,,,,       pompom020366@hotmail.com        pompom@sympatico.ca