Creed - My Own Prison Chords & Tabs

 

My Own Prison Chords & Tabs

Creed Chords & Tabs

Version: 7 Type: Tab 0 ratings
1 star 2 stars 3 stars 4 stars 5 stars
comments

My Own Prison Tab

   
Tuning: Drop-D(D-A-D-G-B-E)
Key: h = hammer on
v = vibrato 
* = palm mute
/= slide

My First Tab EVERRRRRRRRRRRRRR!!!! Im so excited let me know how u like!!
My version i think is pretty good

Intro(little distortion)

E|------------------------------------------------------|
B|--------3---------------------------------------------|
G|--------2----------0----------5--5--------------------|
D|-----0--0-------3----3-----3--3--3--0--3-5-3----------|
A|-----0--0--0h1----------0--3--3--3--0--3h5-3-5-3---0--|
D|--0--0---------------------3--3--------------5-3---0--|

Verse(little distortion)

E|-------------------------------------------------------|
B|--------3----------------------------------------------|
G|-----2--2----------0-----------5--5--------------------|
D|-----0--0-------3----3---------3--3--0-----------------|
A|-----0--0--0h1---------1-0--3--3--3--0--3h5-3-----3--0-|
D|-----0----------------------3--3--------------5-3----0-|

1st Chorus(Guitar 2)(clean)

E|----------------------------------------------------|
B|----6-6-6-6-6-6-6-5-5-5-5-5-5-5-4-4-4-4-4-4-4-4-----|
G|----5-5-5-5-5-5-5-4-4-4-4-4-4-4-3-3-3-3-3-3-3-3-----|
D|----3-3-3-3-3-3-3-2-2-2-2-2-2-2-1-1-1-1-1-1-1-1-----|
A|--3-3-3-3-3-3-3-3-2-2-2-2-2-2-2-1-1-1-1-1-1-1-1-----|
D|--3-3-3-3-3-3-3-3-2-2-2-2-2-2-2-1-1-1-1-1-1-1-1-----|

E|------------------------------------|
B|--4-4-4-4---------------------------|
G|--3-3-3-3-2-2-3-3--/-5-5------------|
D|--1-1-1-1-0-0-3-3--/-5-5------------|
A|--1-1-1-1-0-0-1-1-------------------|
D|--1-1-1-1-0-0-----------------------|

Verse(little distortion)

E|-------------------------------------------------------|
B|--------3----------------------------------------------|
G|-----2--2----------0-----------5--5--------------------|
D|-----0--0-------3----3---------3--3--0-----------------|
A|-----0--0--0h1---------1-0--3--3--3--0--3h5-3-----3--0-|
D|-----0----------------------3--3--------------5-3----0-|

Interlude(DISTORTION) I like to add a twist!

E|----------------------------------------------------|
B|----------------------------------------------------|
G|----------------------2-2--------------5-5----------|
D|----------------------0-0------3-3-0-3-3-3----------| x3 0r 4 times
A|--0-3h5-3----------0--0-0--0h1-1-1-0-3-3-3----------|
D|----------5-3v!!!--0--0--------------3-3-3----------|
                                            
                   
2nd Chorus(distortion)
[ Tab from: http://www.guitartabs.cc/tabs/c/creed/my_own_prison_tab_ver_7.html ]
E|----------------------------------------------------|
B|----------------------------------------------------|
G|----------------------------------------------------|
D|----3-3-3-3-3-3-3-2-2-2-2-2-2-2-1-1-1-1-1-1-1-1-----|
A|--3-3-3-3-3-3-3-3-2-2-2-2-2-2-2-1-1-1-1-1-1-1-1-----|
D|--3-3-3-3-3-3-3-3-2-2-2-2-2-2-2-1-1-1-1-1-1-1-1-----|

E|----------------------------------------------------|
B|----------------------------------------------------|
G|-----------------------------------3-3-3/5-5--------|
D|--1-1-1-1-0-0-0-0-0-0-0-0-0-0-0----3-3-3/5-5--------|
A|--1-1-1-1-0-0-0-0-0-0-0-0-0-0-0---------------------|
D|--1-1-1-1-0-0-0-0-0-0-0-0-0-0-0---------------------|

Bridge(little distortion)

E|----------------------------------------------------|
B|----------------------------------------------------|
G|----------------------------------------------------|
D|-------------------------15-------------------------|
A|--12vvvvvvvvvvv--0-12h13-----13-12vvvvvvvvvvvv------|
D|----------------------------------------------------|

E|---------------------------------------------------------|
B|---------------------------------------------------------|
G|---------------------------------------------------------|
D|----------15--15---------------------------15------------|
A|--0-12h13--------13-12vvvvvvvvvvv--0-12h13---------------|
D|---------------------------------------------------------|

E|--------------------------|switch to |--------------------|
B|--------------------------|distortion|--------------------|
G|--------------------------|and finish|--------------------|
D|---------------15--15--15-|the solo--|---------15-15------|
A|---------13h12-----12--12-|----------|-0-12h13-------13h12|
D|--------------------------|----------|--------------------|

 You can continue doing the solo or switch to guitar 2, which i like to do
 its right here...

(optional)
I cry out to god seeking only his discision....
       (distortion)
E|---------------------------------|
B|---------------------------------|
G|----------5-5-5---2-2-2--3-3-3---|
D|---3-3-3--5-5-5---0-0-0--3-3-3---| x3 or 4 times
A|---3-3-3--3-3-3---0-0-0--1-1-1---|
D|---3-3-3--------0-0-0-0----------|


3rd Chorus(Guitar 2)(distortion)

E|-------------------------------------------------------|
B|-------------------------------------------------------|
G|-------------------------------------------------------|
D|----3-3-3-3-3-3-3-2-2-2-2-*2-*2-*2-1-1-1-1-1-1-1-1-----|
A|--3-3-3-3-3-3-3-3-2-2-2-2-*2-*2-*2-1-1-1-1-1-1-1-1-----|
D|--3-3-3-3-3-3-3-3-2-2-2-2-*2-*2-*2-1-1-1-1-1-1-1-1-----|

The paw muted 2 is another twist, it sounds like it actually could belong there if you do it right!!!!

E|-------------------|
B|-------------------|
G|-------------------|
D|--1-1-1-1---0------|
A|--1-1-1-1---0------|
D|--1-1-1-1---0------|
                                   
I hope you like it, please let me know... thanks
Comments