Creed - My Own Prison Chords & Tabs

 

My Own Prison Chords & Tabs

Creed Chords & Tabs

Version: 3 Type: Tab 0 ratings
1 star 2 stars 3 stars 4 stars 5 stars
comments

My Own Prison Tab

This is my first tabs. MOP is a pretty easy song to figure out. Just listen and 
you should get it on your own. Sorry if it is kinda primative, but its my first. 
Sorry for the sloppiness too. 
If you have any suggestions, e-mail me at McFly52386@aol.com.


Drop D tuning

hammer on- h
pull off- p


Creed
My Own Prison

Intro: play about "quarter note" = 70
Begin with a slight distortion.


e|-----------------------------------------------------------------------------|
b|-------------3---------------------------------------------------------------|
g|-------------2-----------------0----------------5----5
d|--------0----0-----------0h3-------3------------3----3----3------------------|
a|--------0----0-----0h1-----------------0---3----3----3----3---3h5--3---------|
d|---0----0----------------------------------3----3----3------------5--3--|

Verse: for the verse, repeat 4 times.

e|-----------------------------------------------------------------------------|
b|--------2-----3--------------------------------------------------------------|
g|-------------2-----------------0----------------5----5-----------------------|
d|--------0----0-----------0h3-------3------------3----3----3------------------|
a|--------0----0-----0h1-----------------0---3----3----3----3---3h5--3---------|
d|---0----0----------------------------------3----3----3------------5--3--|

Chorus: Repeat twice.
[ Tab from: http://www.guitartabs.cc/tabs/c/creed/my_own_prison_tab_ver_3.html ]
e|-----------------------------------------------------------------------------|
b|-----------------------------------------------------------------------------|
g|--------5-----5-----5--5-----5--5--5----4----4--4----4----4--4----4--4--4----|
d|--------3-----3-----3--3-----3--3--3----2----2--2----2----2--2----2--2--2----|
a|---3----3-----3-----3--3-----3--3--3----2----2--2----2----2--2----2--2--2----|
d|---3----3-----3-----3--3-----3--3--3----2----2--2----2----2--2----2--2--2----|

e|-----------------------------------------------------------------------------|
b|---------------------------------------------3---3--3--3---3--3---3--3--3-|
g|---3---3--3--3----3--3----3--3-----3--3--3---2---2--2--2---2--2---2--2--2-|
d|---1---1--1--1----1--1----1--1-----1--1--1---0---0--0--0---0--0---0--0--0-|
a|---1---1--1--1----1--1----1--1-----1--1--1---0---0--0--0---0--0---0--0--0-|
d|---1---1--1--1----1--1----1--1-----1--1--1---0---0--0--0---0--0---0--0--0-|


Verse 2: Repeat Verse 1 twice

Hook: Is "Should have been dead on a Sunday morning". Repeat Verse 1 four times.

Interlude: This is the "guitar solo". Slight distortion. Repeat 4 times.

e|-----------------------------------------------------------------------------|
b|-----------------------------------------------------------------------------|
g|-----------------------------------------------------------------------------|
d|----------------------------15---15---------------------------15---15--------|
a|--12---------------0--12h13---------13--12---------0--12h13---------13-------|
d|-----------------------------------------------------------------------------|

e|-----------------------------------------------------------------------------|
b|-----------------------------------------------------------------------------|
g|-----------------------------------------------------------------------------|
d|---------------------------15---15-------15----------15--------15---15-------|
a|--12---------------0--12h13---------13----------12---------12h13----------13-|
d|-----------------------------------------------------------------------------|


Repeat Chorus till end.
Comments