Creed - My Own Prison Chords & Tabs

 

My Own Prison Chords & Tabs

Creed Chords & Tabs

Version: 1 Type: Tab 1 rating
1 star 2 stars 3 stars 4 stars 5 stars
comments

My Own Prison Tab

Song: My Own Prison                                        Key
Artist: Creed
Album: My Own Prison                                       Hammer On: h
Tuning: DADGBE                                             Vibrato: v
Tabbed By: Ryan Vernon                                     Slide Down: \
Email: ohio_guitar_player15@yahoo.com                      Let Note Ring: ~

If you have any questions or comments, email me.
________________________________________________________________________________

Intro: Slight Distortion

|--------------------------------------------------------------------------|
|-------------3------------------------------------------------------------|
|-------------2----------------0---------------5----5----------------------|
|--------0----0-----------0h3-----3------------3----3----3-----------------|
|--------0----0----0h1---------------0----3----3----3----3—-3h5--3---------|
|---0----0--------------------------------3----3--------------------5--3---|

Verse: Slight Distortion  3x

|-----------------------------------------------------------------------------|
|-------------3---------------------------------------------------------------|
|--------2----2----------------0---------------5----5-------------------------|
|--------0----0-----------0h3-----3------------3----3----3----------------0---|
|--------0----0----0h1---------------0----3----3----3----3—-3h5--3------------|
|---0----0--------------------------------3----3--------------------5--3------|

|--------------------------------------------------------------------------|
|-------------3------------------------------------------------------------|
|--------2----2----------------0---------------5----5----------------------|
|--------0----0-----------0h3-----3------------3----3----3-----------------|
|--------0----0----0h1---------------0----3----3----3----3—-3h5--3---------|
|---0----0--------------------------------3----3--------------------5--3---|

Chorus: Slight Distortion

|-----------------------------------------------------------------------------|
|-----------------------------------------------------------------------------|
|--------5----5----5--5------5--5--5----4----4--4----4----4--4------4--4--4---|
|--------3----3----3--3------3--3--3----2----2--2----2----2--2------2--2--2---|
|---3----3----3----3--3------3--3--3----2----2--2----2----2--2------2--2--2---|
|---3----3----3----3--3------3--3--3----2----2--2----2----2--2------2--2--2---|

|-----------------------------------------------------------------------------|
|----------------------------------------------3----3--3--3----3--3----3--3---|
|---3----3--3--3----3--3----3--3----3--3--3----2----2--2--2----2--2----2--2---|
|---1----1--1--1----1--1----1--1----1--1--1----0----0--0--0----0--0----0--0---|
|---1----1--1--1----1--1----1--1----1--1--1----0----0--0--0----0--0----0--0---|
|---1----1--1--1----1--1----1--1----1--1--1----0----0--0--0----0--0----0--0---|

|--------------------------------------------------------------------------|
|---3--3--3----------------------------------------------------------------|
|---2--2--2---------5--5--5----5--5----5--5------5--5--5----4----4--4--4---|
|---0--0--0---------3--3--3----3--3----3--3------3--3--3----2----2--2--2---|
|---0--0--0----3----3--3--3----3--3----3--3------3--3--3----2----2--2--2---|
|---0--0--0----3----3--3--3----3--3----3--3------3--3--3----2----2--2--2---|



|-----------------------------------------------------------------------------|
|-------------------------------------------------------------------------3---|
|---4--4----4--4----4--4--4----3----3--3--3----3--3----3--3----3--3--3----2---|
|---2--2----2--2----2--2--2----1----1--1--1----1--1----1--1----1--1--1----0---|
|---2--2----2--2----2--2--2----1----1--1--1----1--1----1--1----1--1--1----0---|
|---2--2----2--2----2--2--2----1----1--1--1----1--1----1--1----1--1--1----0---|

|----------------------------------------------------|
|----------------------------------------------------|
|----------------------------------------------------|
|-----------------0h3--------------3-------------0---|
|------------0h1-------1--0--------3h5--3------------|
|---0--------------------------------------5--3------|

Repeat Verse: Slight Distortion  2x

Pre-Chorus: Distortion  4x

|----------------------------------------------------------------------|
|----------3--------3--3--3--------------------------------------------|
|----------2--------2--2--2---------------------------------5------5---|
|----------0--------0--0--0----3------3---------------------3------3---|
|---0------0--------0--0--0----1------1----0--0----3--------3------3---|
|---0------0--------0--0--0------------------------3--------3------3---|

|-----------------------|
|-----------------------|
|-----------------------|
|---3---------------0---|
|---3-—3h5--3-----------|
|-------------5--3------|
[ Tab from: http://www.guitartabs.cc/tabs/c/creed/my_own_prison_tab.html ]
Repeat Chorus: Distortion

Interlude: Slight Distortion

|-----------------------------------------------|
|-----------------------------------------------|
|-----------------------------------------------|
|--------------------------------15----15-------|
|---12v~~~~------------0—-12h13------------13---|
|-----------------------------------------------|

|-----------------------------------------------|
|-----------------------------------------------|
|-----------------------------------------------|
|--------------------------------15----15-------|
|---12v~~~~------------0--12h13------------13---|
|-----------------------------------------------|

|--------------------------------------------------------------------|
|--------------------------------------------------------------------|
|--------------------------------------------------------------------|
|--------------------------------15----15------15v~~~~----------15---|
|---12v~~~~------------0—-12h13------------13-------------12---------|
|--------------------------------------------------------------------|

|-------------------------|
|-------------------------|
|-------------------------|
|----------15----15-------|
|---12h13------------13---|
|-------------------------|
    ^ Distortion
Bridge: Distortion  4x
This rhythm is also played over the Interlude with Slight Distortion.

|------------------------------------------------------------------------------|
|------------------------------------------------------------------------------|
|---5----5--5--5----5--5--5--5-----------------------2----2--2--2----2--2--2---|
|---3----3--3--3----3--3--3--3--5------5--5--5--5----0----0--0--0----0--0--0---|
|---3----3--3--3----3--3--3--3--3------3--3--3--3----0----0--0--0----0--0--0---|
|---3----3--3--3----3--3--3--3-----------------------0----0--0--0----0--0--0---|

|--------------------------|
|--------------------------|
|---2----------------------|
|---0--3------3--3--3--3---|
|---0--1------1--1--1--1---|
|---0----------------------|

The Interlude is also repeated 2x under the Bridge and ends with this.

|--------------------------------------------------|
|--------------------------------------------------|
|--------------------------------------------------|
|--------------------------------------------------|
|---15-------15-------15-------15-------15---------|
|------13-12----13-12----13-12----13-12----13-12---|

Repeat Chorus: Distortion  2x
This is played under the chorus. Distortion  4x

|-----------------------------------------------------------------------------|
|-----------------------------------------------------------------------------|
|-----------------------------------------------------------------------------|
|---------------------------------15------------------------------------------|
|---12---12----12-12----0-—12h13--------12----10----10----10-10----10----10---|
|-----------------------------------------------------------------------------|

|----------------------------------------------------------------------------|
|----------------------------------------------------------------------------|
|----------------------------------------------------------------------------|
|---------------------------------------15-----------------------------------|
|---10--------10------10--10----0—-12h13--------13----12------12----12--12---|
|----------------------------------------------------------------------------|

|--------------------------------|
|--------------------------------|
|--------------------------------|
|-------------------15-----------|
|--(12)\--0-—12h13----------12---|
|--------------------------------|

Outro: Distortion

|----------------------------------------------------------------------|
|----------------------------------------------------------------------|
|----------5--------5------5--5--------5--5--5----4------4--4------4---|
|----------3--------3------3--3--------3--3--3----2------2--2------2---|
|---3------3--------3------3--3--------3--3--3----2------2--2------2---|
|---3------3--------3------3--3--------3--3--3----2------2--2------2---|

|-----------------------------------------------------------------|
|-----------------------------------------------------------------|
|---4--4--------4--4--4----3------3--3--3------3--3--------3--3---|
|---2--2--------2--2--2----1------1--1--1------1--1--------1--1---|
|---2--2--------2--2--2----1------1--1--1------1--1--------1--1---|
|---2--2--------2--2--2----1------1--1--1------1--1--------1--1---|

|---------------------|
|---------------------|
|---3--3--3-----------|
|---1--1--1----0~~~---|
|---1--1--1----0~~~---|
|---1--1--1----0~~~---|



Song Order

Intro: Slight Distortion
Verse: Slight Distortion
Chorus: Slight Distortion
Verse: Slight Distortion
Pre-Chorus: Distortion
Chorus: Distortion
Interlude: Slight Distortion
Bridge: Distortion
Chorus: Distortion
Outro: Distortion
Comments