Creed - My Own Prison Chords & Tabs

 

My Own Prison Chords & Tabs

Creed Chords & Tabs

Version: 4 Type: Bass Tab 0 ratings
1 star 2 stars 3 stars 4 stars 5 stars
comments

My Own Prison Bass Tab

   
Band- Creed
Album- My Own Prison

1.Torn
2.Ode
3.My Own Prison
4.Pity For A Dime
5.In America
6.Illusion
7.Unforgiven
8.Sister
9.What's This Life For
10.One

1.TORN

Intro:
--------------------------------------------|
-----------------------12-------------------|
----------------------------------3-5-5-5-5-|
-----------------------------0--------------|


Verse:
---------------------------------------------------------------------------|
---------------------------3----------------------------------3----3-3-5-5-|
----5-3--3---0-3----5-3--3---3-0-3-5----5-3--3---0-3---5-3--3----3---------|
-0---------------0-------------------0---------------0---------------------|


Pre-Chorus:
---------------------------------------|
---------------------------------------|
------------------3--3-3--3--0-0-5-----|
-3--3-3--3--3-3--------------------3---|

---------------------------------------------------------------|
---------------------------------------------------------------|
-------------------3-4-5-0-3-4-------------------3-4-5-0-5-4-3-|
-0--0-0-3-0-0-0--0-------------0--0-0-3-0-0-0--0---------------|


Chorus:
----------------------------------------------------------------2-0-----------|
--------------------------------------------------------------------2-0-------|
---------3-3--3--3---------5-5--5--5---------8-8--8--8--0--0-0----------3-----|
-3--3--3-----------5--5--5-----------8--8--8------------------------------3-5-|


Interlude:
--------------------------------------------------------|
--------------------------------------------------------|
-5-5-3-3-2-2-0-0-----5-5-----5-5-4-4---------4--5-3-0---|  x 2
-----------------3-5-----5-5---------3-3-5-5----------5-|

    after 1ST time:
   -----------------------------------------------------------------|
   -----------------------------------------------------------------|
   -----------------------------------------------------------------|
   -3-3-3-3-3-3-3-3-3-3-3-3-3-3-3-3-2-2-2-2-2-2-2-2-2-2-2-2-2-2-2-2-|

    after 2ND time:
   ---------------------------------------|
   ---------------------------------------|
   ---------------------------------------|
   -3--3-3--3--2-2-3-5--2--2-2--2-0-0-2-3-|


-----------------------------------------------|
-----------------------------------------------|
----3--2---------5------5--4--------4--5-3-0---|  x 3
-0--------3--3-5----3-5-------0-3-5----------5-|

    after 1ST and 2ND time:
   ---------------------------------------|
   ---------------------------------------|
   ---------------------------------------|
   -3--3-3--3--2-2-3-5--2--2-2--2-0-0-2-3-|

    after 3RD time:
   ----------------------------------------|
   ----------------------------------------|
   ----------------------------------------|
   -3--3-3--3--2-2-3-5--2--2-2--2-2-2--2-2-|


Third Chorus:
------------------------------------------------------2-0-----------|
----------------------------------------------------------2-0-------|
-----3------5------8--0----------3------5------8--0-----------3-----|
-3------5------8----------5--0------5------8--------------------3-5-|

2.ODE

Intro -

-|-----------------------------------|
-|---------19*------------------19*--|
-|-----------------------------------|
-|-0-0-0-0-----0-0-0-0--0-0-0-0------|

Pre-Verse/Part 2 of Intro -

-|----------------------------------|
-|-0-0-0-7-0-6-0-4-0-5-0-2-0-3-2-1--|
-|----------------------------------|
-|----------------------------------|

Verse -

-|----------------------------------|
-|----------------------------------|
-|----------------------------------|
-|-0-0-0-7-0-6-0-4-0-5-0-2-0-3-2-1--|

Main Chorus Riff -

-|------------------------------------------------------------------------|
-|------------------------------------------------------------------------|
-|------------------------------------------------------------------------|
-|-0-0-0-0-0-0-0-0-0-2-2-2-2-2-2-2-2-2-2-2-2h4-5-5-5-5-5-5-5-5-5-5-5-5-5--|

Chorus Fills -

-|------------------------|--------------------------------|
-|---------3-------3------|-------3h4h5-------3h4h5--------|
-|-5---3h5---5-3h5---5-3b-|-3h4h5-------3h4h5-------3h5p3--|
-|---0--------------------|--------------------------------|

Interlude/Another Chorus Fill -

-|--------------------------------------------------------------------------|
-|--------------------------------------------------------------------------|
-|--------------------------------------------------------------------------|
-|-0-12-11-0-12-11-0-12-11-0-12-11-0-12-11-0-12-11-0-12-11-0-12-11-0-3-4-5--|

-|--------|
-|--------|
-|--------|
-|-5-4-3--|

Interlude/Ending -

-|-----------------|
-|-----------------|
-|-----------------|
-|-0~--3-4-5-5-4-3-|

3.MY OWN PRISON

Opening (Come in when drums come in)
G-------------------------------|
D-------------------------------|
A-0-3h5-3-----------------------|
D--------5-3-0------------------|

Verse
G--------------------------------------------|
D---------------0-3h5-0----------------------|
A-------0-0-0h1---------------0-3h5-3--------|
D--3-3-3----------------3-3-3----------5-3-0-|

Chorus
G------------------------------------------------------------------------|
D--------------------------------------------8-8-----------------3-------|
A--------3---3-5-5---------2--2-3-5--6-666-6--6-6--5-555-5-0-3-5--5-3-3--|
D-3-333-3--3--------2-222-2--2-------------------------------------------|

Verse again

Pre-chorus ("Shoulda Been Dead On A Sunday Morning...")
G-------------------------------------|
D-------------------------------------|
A-------1-1-1-1-------0-3h5-3---------|
D-0-0-0---------3-3-3--------5-3-0----|

Chorus

Guitar Solo                      On the last one play this, it sounds really cool
G------------------------------|------------------|
D------------------------------|------------------|
A---------3-3-3h4-5-5-5--1-1-1-|--/15-15-15-15-15-|
D---3-3-3----------------------|------------------|

Chorus

4.PITY FOR A DIME

Verse
G|------------------------------------------|
D|*----------------------------------------*|
A|*-7--7-7-0-4-7-6-6h7p6-4~------------9-7-*|
E|---------------------------5-5-0-5-7------|

Chorus
G|-------------------------------------------------------------------|
D|*------------------------------------------------------------------|
A|*-7--7--7-7-7-7-7-7-7-----------------------2-2-2------------------|
E|-----------------------3--3--3-3-3-3-3-3-3--------2--2-2-2-2-2-2-2-|

Interlude
G|--------------------------------------------------------|
D|*------------------------------------------------------*|
A|*---------5h7-----7---7-7-7/10----5h7---10p7-7--10p7-7-*|
E|---0--0-0-----0-0---0-----------0-----0-----------------|

("Plain talk can be the easy way...")
G|----------------------------------------------------------------------------------------|
D|----------------------------------------------------------------------------------------|
A|--------5h7---7---7-7-7/10-10-------------10p7---10---10/14--3-3-3---2-2-2--------------|
E|-0--0-0-----0---0--------------0--0-0-0-0------0----0--------------3-------2--0-2/3-2/3-|

("Signs of losing my faith...")
G|--------------------------------------------------------------------------------------|
D|--------------------------------------------7-6-5-------------------------------------|
A|--------5h7---7---7-7-7/10-10----5h7---7----------7-6-5-----3-3-3---2-2-2-------------|
E|-0--0-0-----0---0--------------0-----0---0--------------7-5-------3-------2-0-2/3-2/3-|


Chorus

Solo - Just play the riffs above

Chorus

outro
G|--------------------------------------------------------------------------------------|
D|--------------------------------------------7-6-5-------------------------------------|
A|--------5h7---7---7-7-7/10-10----5h7---7----------7-6-5-----3-3-3---2-2-2-------------|
E|-0--0-0-----0---0--------------0-----0---0--------------7-5-------3-------2-0-2/3-2/3-|

G|------------------------------------------------------|
D|------------------------------------------------------|
A|-3-3-3---2-2-2-------------3-3---2-2-2----------------|
E|-------3-------2-0-2/3-2/3-----3-------2-0-2/3-2/3-0~-|

5.IN AMERICA

---------------------------------|
D--------------------------------|
A-5-5-5/8-8-8-0-777-0-777-0-777--|(there is a little fill the 4th time)
D--------------------------------|


Chorus(What is right or wrong)
G-------------------------------------------------------|
D------7-7-5-7-5----------------------------------------|
A-5-55-----------7-5-0------7-7-5-7-5-------------------|
D----------------------5-55-----------7-5-0-------------|


Chorus Continued
G-------------------------------------------------------|
D------4-4-2-4-2----------------------------------------|
A-2-22-----------4-2-0-----4-4-2-0----------------------|
D----------------------2-2------------------------------|


Bridge- 1st part    2nd Part
G-----------------:-----------------------------------------|
D-----------------------------------------------------------|(Play this part slow 4x then 8x twice as fast)
A-----------------:-----------------------------------------|
D-0-0-0-0-3-2-1---:-15-14-0-13-14-0-13-12-0-10-12-0-0-0-12--|


Bridge Cont'd
("In America, Whoa oh oh")
G------------77777--------------------------------|
D-------------------------------------------------|
A-----55555---------------------------------------|
D-------------------------------------------------|

6.ILLUSION

Intro/ Chorus:

G|------------------------------|
D|-------------------4-0--------|
A|---2--------------------------|
D|-----3--3-0-------------0-----|


Verse:

G|-----------------------------------------------|
D|-----------------------------------------------|
A|-2-2-2-2-2-2-----------------------------------|
D|-------------3-3-3-3-3-3-3-3-3-3---00--00--00--|


Solo:
[ Tab from: http://www.guitartabs.cc/tabs/c/creed/my_own_prison_btab_ver_4.html ]
G|-----------------|
D|--0--------------|
A|-----1--1--3--0--|
D|-----------------|

Play solo 7 times then this on the 8th:

G|--------------------------------------|
D|--0--------------2-----0-----3--------|
A|-----1--1--3--0-----------1-----3--0--|
D|--------------------------------------|

Play solo 4 more times


Interlude: play 16 times

G|---------------------------------|
D|---------------------------------|
A|---------------------------------|
D|--4-5-4-5-0-------0-4-5-7-5-4-0--|


End with:

G|--------|
D|--------|
A|--2-----|
D|-----3--|


Song structure:

Intro-6x
Verse-4x
Chorus-4x
Verse-4x
Chorus-4x
Solo-12x
Interlude-16x
Chorus-3x then ending

7.UNFORGIVEN

Intro
G----------------------------------------------------|
D--------0h6----------0------------0h6---------------|
A----0h6----------0h6----------0h6-------------------|
D-0-0---------0-0---------0--0----------0-0--0-6-5-0-|

G--------------------------------------------------|
D---------0h6---------0-----------0h6--------------|
A-----0h6---------0h6---------0h6------------------|
D-3-0---------0-0--------0--0----------0-0-0-6-5-0-|

G---------------------------------------------|
D---------0h3---------0---------0h3---------0-|
A-----0h3---------0h3-------0h3---------0h3---|
D-3-0---------0-0-------0-0---------0-0-------|

G-------------------------------------------------|
D---------0h3-----------0----------0h3----------0-|
A-----0h3-----------0h3--------0h3----------0h3---|
D-0-0-----------0-0--------0-0----------0-0-------|

Verse
G-------------------------|
D---------0-6----------0--|   X3
A-----0h6----------0-6----|
D-0-0----------0-0--------|

G----------------------------|
D---------0-6----------------|
A-----0h6--------------------|
D-0-0----------0-0-0-0-6-5-0-|

G------------------------------------------------|
D---------0-6----------0----------0-6----------0-|
A-----0h6----------0-6--------0h6----------0-6---|
D-3-0----------0-0--------0-0----------0-0-------|

G---------------------------------------------------|
D---------0-6--------------0----------0-6---------0-|
A-----0h6--------------0-6--------0h6---------0-6---|
D-0-0--------------0-0--------0-0---------0-0-------|

Chorus
G-----------------------------------------------|
D-----------------------------------------------|
A-5-5-5-5-5-5-5-4-4-4-4-4-4-4-4-2-2-2-2-2-2-2---|
D---------------------------------------------0-|

G-----------------------|
D-----------------------|
A---------5-6---------5-|
D-0-0-6h7-----0-0-6h7---|

G-----------------------------------------------|
D-----------------------------------------------|
A-5-5-5-5-5-5-5-4-4-4-4-4-4-4-4-2-2-2-2-2-2-2---|
D-----------------------------------------------|

G-----------------------|
D-----------------------|   X4
A---------5-6---------5-|
D-0-0-6h7-----0-0-6h7---|

Verse
G-------------------------|
D---------0-6----------0--|   X3
A-----0h6----------0-6----|
D-0-0----------0-0--------|

G----------------------------|
D---------0-6----------------|
A-----0h6--------------------|
D-0-0----------0-0-0-0-6-5-0-|

G------------------------------------------------|
D---------0-6----------0----------0-6----------0-|
A-----0h6----------0-6--------0h6----------0-6---|
D-3-0----------0-0--------0-0----------0-0-------|

G---------------------------------------------------|
D---------0-6--------------0----------0-6---------0-|
A-----0h6--------------0-6--------0h6---------0-6---|
D-0-0--------------0-0--------0-0---------0-0-------|

Chorus
G-----------------------------------------------|
D-----------------------------------------------|
A-5-5-5-5-5-5-5-4-4-4-4-4-4-4-4-2-2-2-2-2-2-2---|
D-----------------------------------------------|

G-----------------------|
D-----------------------|
A---------5-6---------5-|
D-0-0-6h7-----0-0-6h7---|

G-----------------------------------------------|
D-----------------------------------------------|
A-5-5-5-5-5-5-5-4-4-4-4-4-4-4-4-2-2-2-2-2-2-2---|
D-----------------------------------------------|

G-----------------------|
D-----------------------|
A---------5-6---------5-|
D-0-0-6h7-----0-0-6h7---|

G------------------------------------------------|
D------------------------------------------------|
A-5-5-5-5-5-5-5-4-4-4-4-4-4\13-13-13-13-13-13-13-|
D------------------------------------------------|

G-----------------------|
D-----------------------|   X4
A---------5-6---------5-|
D-0-0-6h7-----0-0-6h7---|

Intelude
G-------------------------|
D---------0-6----------0--|
A-----0h6----------0-6----|
D-0-0----------0-0--------|

G----------------------------|
D---------0-6----------------|
A-----0h6--------------------|
D-0-0----------0-0-0-0-6-5-0-|

G---------------------------------------|
D---------0h6----------0----------------|
A-----0h6----------0h6------------------|
D-3-0----------0-0--------0-0-0-6-5-3-0-|

G-----------------------------------------------|
D-----------------------------------------------|
A-----------------5-3-----------------5-3---5-3-|
D-0-0-0-0-0-0-0-0-----0-0-0-0-0-0-0-0-----0-----|

G-------------------------------------------------------------|
D-------------------------------------------------------------|
A-------------------------5-3-----------------5-3---5-3---5-3-|
D-0-0-0-0-0-0-0-0-0-0-0-0-----0-0-0-0-0-0-0-0-----0-----0-----|

G-----------------------------------------------------------------------|
D-----------------------------------------------------------------------|
A-------------------------5-3-----------------5-3---5-3---5-3---5-3-----|
D-0-0-0-0-0-0-0-0-0-0-0-0-----0-0-0-0-0-0-0-0-----0-----0-----0-----0-0-|

Bass Solo
G-------------------------------------------------------------------|
D-------------------------------------------------------------------|
A-------------------------------------------------------------------|
D-13-12-12-13-13-12--12-13-12-12-13-13-12--12-13-12-12-13-13-12--12-|

cont...
G-------------------------|
D-------------------------|   X6
A-12-12-12-12-12-12-12----|
D----------------------12-|

Chorus
G-----------------------------------------------|
D-----------------------------------------------|
A-5-5-5-5-5-5-5-4-4-4-4-4-4-4-4-2-2-2-2-2-2-2---|
D-----------------------------------------------|

G-----------------------|
D-----------------------|
A---------5-6---------5-|
D-0-0-6h7-----0-0-6h7---|

G-----------------------------------------------|
D-----------------------------------------------|
A-5-5-5-5-5-5-5-4-4-4-4-4-4-4-4-2-2-2-2-2-2-2---|
D-----------------------------------------------|

G-----------------------|
D-----------------------|
A---------5-6---------5-|
D-0-0-6h7-----0-0-6h7---|

G----------------------------------------|
D----------------------------------------|
A-5-5-5-5-5-5-5-4-4\13-13-13-13-13-13-13-|
D----------------------------------------|

G-----------------------|
D-----------------------|   X4
A---------5-6---------5-|
D-0-0-6h7-----0-0-6h7---|

End Note
G-------|
D-------|
A-------|
D--0~~--

8.SISTER

Intro 1
G|----------------------------|
D|*--------------------------*|
A|*-9--10--12~---10--9--5~---*|
D|----------------------------|

Intro 2
G|--------------------------------------------------------------------------|
D|--------------------------------------------------------------------------|
A|-7~-8~-9~-10~-7h8-5-7h8-5-5--7h8-5-7h8-5-5-7h8-10-7h8-10-10-7h8-5-7h8-5-5-|
D|--------------------------------------------------------------------------|

Intro 3 & Verses
G|----|----------------------------------------|
D|----|*-------7--------0--------0--------0---*|
A|-/7-|*---7h9------7h9------7h9------7h9-----*|
D|----|--0--------0--------0--------0----------|

Pre-chorus 1 (Palm muted part)
G|--------------------------------------------|
D|*------------------------------------------*|
A|*--------------------------------9h10-9h10-*|
D|--0-0-10-9-0-0-9-8-0-0-8-7-0-0-0------------|

Pre-chorus 2 (Distortion part)
G|----------------------------------------|
D|*--------------------------------------*|
A|*----------------------------5-5-7-9-9-*|
D|--0-0-10-9-0-0-9-8-0-0-8-7-0------------|

Chorus("Bottled up and empty holding back...")
G|------------------------------------|
D|*----------------------------------*|
A|*--------2-2-0-0-0-----------------*|
D|--0--0-0-----------5-5-5-5-0-0-0-0--|

9.WHATS THIS LIFE FOR

|-------------------------------------------|
D|*-----------------------------------------|
A|*-2--2~--3~~-------5-5--2--2-2-3-3-3h5----|
E|------------3--3-3------------------------|

Verse
G|---------------------------------|
D|*-------------------------------*|
A|*--------5-5-5/2--2-2-3-3-3-3h5-*|
E|--3--3-3-------------------------|

2nd Chorus is same as first

Interlude (just follow along wit the guitar)
G|-------------------------------------------------------------------|
D|-------------------------------------------------------------------|
A|------------------------------------------3--3-3-3-3-0-0-3-3h5-5-5-|
E|-3--3--3-0-3-3-3-3-3--3--3--3-0-3-3-3-3-3--------------------------|

G|-----------------------------------------------------------|
D|--------5h7-7-7-7-7-7--------------------------------------|
A|-0--0-0---------------3--3-3-3-3--3-3--3-------------------|
E|-----------------------------------------3--3-3-0-3--3-3-3-|

Do this little slide riff whenevr needed. It's pretty easy to hear
G|--------------------------------------|
D|--------------------------------------|
A|--------------------------------------|
E|-/15-15-15-15-15-15-15-15-15-15-15-15-|

10.ONE

VERSE
          G------------------------------|
          D------------------------------|
          A-4-444-4-------7-777-7--------|
          E--------5-555-5-------7-777-7-|

          CHORUS
          G------------------------------|
          D------------------------------|
          A-2-222-2-------4-444-4--------|
          E--------2-222-2-------4-444-4-|
Comments