Creed - Lullaby Chords & Tabs

 

Lullaby Chords & Tabs

Creed Chords & Tabs

Version: 6 Type: Tab 0 ratings
1 star 2 stars 3 stars 4 stars 5 stars
comments

Lullaby Tab

This is off there new record! It has a very smooth sound.


E---------------------------------------------------------------
A---------------------------------------------------------------
D----------9--9--7--7--------------7h9p7--7---------------------
G--76--6---------------7-6--9-7-----------------7/9-------------
B---------------------------------------------------------------
E---------------------------------------------------------------


E---------------------------------------------------------------
A---------------------------------------------------------------
D---5-4------4--4h5----4----5-4--------------------------------- 2x
G-------4-2----------------------4-2---------4------------------
B------------------------------------3-2---2--------------------

E---------------------------------------------------------------
A---------------------------------------------------------------
D---------------------------------------------------------------
G------------6-7------------------------------------------------
B--7-8----------------------------------------------------------
E---------------------------------------------------------------

[ Tab from: http://www.guitartabs.cc/tabs/c/creed/lullaby_tab_ver_6.html ]
E---------------------------------------------------------------
A---------------------------------------------------------------
D---5-4---------4-4h5---4---0----------------------------------- 3x
G--------4-2----------------------------------------------------
B---------------------------------------------------------------
E---------------------------------------------------------------

E---------------------------------------------------------------
A-------0--4h5--------------------------------------------------
D---------------------------------------------------------------
G---------------------------------------------------------------
B---------------------------------------------------------------
E---------------------------------------------------------------

Repet everything and on the end the last eight bars change to this..

E---------------------------------------------------------------
A---------------------------------------------------------------
D--5-4----------4--4h5/7p0-------------------------------------- 8x
G-------4-2-----------------------------------------------------
B---------------------------------------------------------------
E---------------------------------------------------------------

E----------------------
A---0----4h5---5-------
D----------------------
G----------------------
B----------------------
E----------------------


There it is, it took me about 20 min. to learn it.

let me knoe what you think,  shawngilstrap@hotmail.com
Comments