Creed - Lullaby Chords & Tabs

 

Lullaby Chords & Tabs

Creed Chords & Tabs

Version: 3 Type: Tab 0 ratings
1 star 2 stars 3 stars 4 stars 5 stars
comments

Lullaby Tab

Song: Lullaby
Artist: Creed                                              Key
Album: Weathered
Tuning: DADGBE                                             Slide Up: /
Tabbed By: Ryan Vernon                                     Hammer On: h
Email: ohio_guitar_player15@yahoo.com                      Pull Off: p
                                                           Let Note Ring: ~
The song is actually finger picked but this is an
easier picked version. When you play the fills, they
are played until the end with all three guitars ending
at the same time. If you have any questions or comments
email me.
________________________________________________________________________________

Verse # 1: Clean

|------------------------------------------------------------------------------|
|------------------------------------------------------------------------------|
|------------------------------------------------------------------------------|
|---12-11--11-9--9-7-7~~-----12-11--14-12-—7h9-7—-12/14-0~~--------------------|
|------------------------------------------------------------------------------|
|------------------------------------------------------------------------------|

|------------------------------------------------------------------------------|
|------------------------------------------------------------------------------|
|------------------------------------------------------------------------------|
|---12-11--11-9--9-7-7~~-----12-11--14-12—-7h9-7-0~~---------------------------|
|------------------------------------------------------------------------------|
|------------------------------------------------------------------------------|

|------------------------------------------------------------------------------|
|------------------------------------------------------------------------------|
|------------------------------------------------------------------------------|
|---12-11--11-9--9-7-7~~-----12-11--14-12—-7h9-7—-12/14-0~~--------------------|
|------------------------------------------------------------------------------|
|------------------------------------------------------------------------------|

Chorus # 1: Clean

|------------------------------------------------------------------------------|
|------------------------------------------------------------------------------|
|------------------------------------------------------------------------------|
|---5-4--9-7—4~--4h5p4-0~---5-4--9-7--12-11--11-9--5-4--9-7--12-11--11-9-------|
|------------------------------------------------------------------------------|
|------------------------------------------------------------------------------|

|------------------------------------------------------------------------------|
|------------------------------------------------------------------------------|
|------------------------------------------------------------------------------|
|---16-17--11-12~---5-4--9-7—-4~--4h5p4-0~---5-4-—9-7-—4~--4h5p4-0~------------|
|------------------------------------------------------------------------------|
|------------------------------------------------------------------------------|

|------------------------------------------------------------------------------|
|------------------------------------------------------------------------------|
|------------------------------------------------------------------------------|
|---5-4—-9-7—-4~---4h5-4-------0~----------------------------------------------|
|------------------------0-2h4-------------------------------------------------|
|------------------------------------------------------------------------------|

Verse # 2: Clean

|------------------------------------------------------------------------------|
|------------------------------------------------------------------------------|
|------------------------------------------------------------------------------|
|---12-11—-11-9—-9-7-7~~-----12-11—-14-12—-7h9-7—-12~~-------------------------|
|------------------------------------------------------------------------------|
|------------------------------------------------------------------------------|

|------------------------------------------------------------------------------|
|------------------------------------------------------------------------------|
|------------------------------------------------------------------------------|
|---12-11—-11-9—-9-7-7~~-----12-11--14-12—-7h9-7—-12/14—-12~~------------------|
|------------------------------------------------------------------------------|
|------------------------------------------------------------------------------|
[ Tab from: http://www.guitartabs.cc/tabs/c/creed/lullaby_tab_ver_3.html ]
|------------------------------------------------------------------------------|
|------------------------------------------------------------------------------|
|------------------------------------------------------------------------------|
|---12-11—-11-9—-9-7-7~~-----12-11—-14-12—-7h9-7-—12~~-------------------------|
|------------------------------------------------------------------------------|
|------------------------------------------------------------------------------|

Chorus # 2: Clean

|------------------------------------------------------------------------------|
|------------------------------------------------------------------------------|
|------------------------------------------------------------------------------|
|---5-4-—9-7—-4~--4h5p4-0~---5-4--9-7--12-11--11-9--5-4—-9-7--12-11--11-9------|
|------------------------------------------------------------------------------|
|------------------------------------------------------------------------------|

|------------------------------------------------------------------------------|
|------------------------------------------------------------------------------|
|------------------------------------------------------------------------------|
|---16-17--11-12~---5-4--9-7—-4~---4h5-4-0~---5-4—-9-7—-4~---4h5/7-0~----------|
|------------------------------------------------------------------------------|
|------------------------------------------------------------------------------|

|------------------------------------------------------------------------------|
|------------------------------------------------------------------------------|
|------------------------------------------------------------------------------|
|---5-4--9-7—-4~---4h5-4-0~---5-4—-9-7—-4~---4h5-4-0~--------------------------|
|------------------------------------------------------------------------------|
|------------------------------------------------------------------------------|

Guitar Two Start To Play Fill In One 5x

|------------------------------------------------------------------------------|
|------------------------------------------------------------------------------|
|------------------------------------------------------------------------------|
|---5-4--9-7—-4~---4h5/7-0~---5-4--9-7—-4~---4h5-4-0~--------------------------|
|------------------------------------------------------------------------------|
|------------------------------------------------------------------------------|

Guitar Three Start To Play Fill In Two 3x

|------------------------------------------------------------------------------|
|------------------------------------------------------------------------------|
|------------------------------------------------------------------------------|
|---5-4--9-7—-4~---4h5-4-0~---5-4--9-7—-4~---4h5/7-0~--------------------------|
|------------------------------------------------------------------------------|
|------------------------------------------------------------------------------|

|------------------------------------------------------------------------------|
|------------------------------------------------------------------------------|
|------------------------------------------------------------------------------|
|---5-4--9-7—-4~---4h5-4-------0-(0)~~~----------------------------------------|
|------------------------0-2h4-------------------------------------------------|
|------------------------------------------------------------------------------|
All Guitars End At The Same Time  ^
________________________________________________________________________________


Fill In # 1: Clean
|------------------------------------------------------------------------------|
|---7h8-8----7h8-7----7h8-7----7h8-7-------------------------------------------|
|---------7--------7--------7--------7-----------------------------------------|
|------------------------------------------------------------------------------|
|------------------------------------------------------------------------------|
|------------------------------------------------------------------------------|


Fill In # 2: Clean
|---14h15-14-----14h15-14-----14h15-14-----14h15-14----------------------------|
|------------15-----------15-----------15-----------15-------------------------|
|------------------------------------------------------------------------------|
|------------------------------------------------------------------------------|
|------------------------------------------------------------------------------|
|------------------------------------------------------------------------------|


Song Order

Verse # 1: Clean
Chorus # 1: Clean
Verse # 2: Clean
Chorus # 2: Clean
Comments