Creed - Lullaby Chords & Tabs

 

Lullaby Chords & Tabs

Creed Chords & Tabs

Version: 14 Type: Tab 0 ratings
1 star 2 stars 3 stars 4 stars 5 stars
comments

Lullaby Tab

Lullaby by:Creed

My brother and me wrote this tab and it is just like the song.
Some tabs use 2 strings when playing this song but this sounds 
just like the song with 1 string. So here it is.

tabbed by Alex Fairfield 
afairfield64@cox.net
help from Robert Fairfield 

Intro and Verse
e----------------------------------------------------
B----------------------------------------------------
G---7-6-6---------7-6-9-7------7h9-7-----------------
D---------9-9-7-7---------7h9-7---------------------- x3
A----------------------------------------------------
E----------------------------------------------------
                           If theres one thing...
E-------------------------|---------------------------
B-------------------------|-----------3-2---2---------
G-------4-2---------------|-------4-2------------4----
D---5-4-----4--4h5----4---|---5-4--------------------- x2
A-------------------------|---------------------------
E-------------------------|---------------------------
[ Tab from: http://www.guitartabs.cc/tabs/c/creed/lullaby_tab_ver_14.html ]
Hope I showed you 
E----------------------------------------------------
B---------------7--8---------------------------------
G-----------------------6--7-------------------------
D----------------------------------------------------
A----------------------------------------------------
E----------------------------------------------------

Just give love to all
E----------------------------------------------------
B----------------------------------------------------
G-------4-2------------------------------------------ x3
D---5-4-----4--4h5----4------------------------------
A----------------------------------------------------
E----------------------------------------------------

After ^
E----------------------------------------------------
B----------------------------------------------------
G----------------------------------------------------
D----------------------------------------------------
A------------0--4h5----5-----------------------------
E----------------------------------------------------

At the end change to...
E----------------------------------------------------
B----------------------------------------------------
G--------------4--2----------------------------------
D--------5-4-----------4--4h5/7p0--------------------
A----------------------------------------------------
E----------------------------------------------------
Comments