Creed - Lullaby Chords & Tabs

 

Lullaby Chords & Tabs

Creed Chords & Tabs

Version: 11 Type: Tab 0 ratings
1 star 2 stars 3 stars 4 stars 5 stars
comments

Lullaby Tab

Author/Artist: Creed
Title: Lullaby
Album: Weathered
Transcribed by: Tek
Email: kdx@industryinet.com

Drop D Tuning!!
Every tab I found was CLOSE but this is 100% accurate
Email me With Comments, Corrections, or Suggestions!!!  Thanks!
[ Tab from: http://www.guitartabs.cc/tabs/c/creed/lullaby_tab_ver_11.html ]
Intro/Verse
|-------------------------------------|
|-3-2-2-0-0---------3-2-5-0------3/5p3|
|-----------2-2-------------2h4-2-----| 3x
|---------------0---------------------|
|-2---0---5------0--2---0-------------|
|-------------0-----------------------|
                                                                              
Pre-Chorus 0:30            Chorus Part 1     0:35
|------------------------|-------------------------------------2-2h3---------
|-----0------------------|-----0-2-2-2-2p0-0-------0-2-2-2-2p0-------2/3-3---
|-0-----2----------------|-0-------------------0-----------------------------
|---4-----4----4/5\4-4p0-|---4-------------------4-------------0-----2-------
|-----------0------------|---------------------------------------------------
|-2---5---0---0----------|-2---5---3---0-------2---5---3---0-----------------
                                                                              
Chorus Part 1    0:50            Chorus Part 2                
|------------------------|    |-----------|-----------------|
|-----0------------------|    |-----0-----|-----------------|
|-0-----2----------------| 2x |-0-----2---|-----------------|
|---4-----4-----4/5-4p0--|    |---4-----4-|-4/5-4-----------|
|-----------0------------|    |-----------|-------0-0/4-5-0-|
|-2---5---0---0----------|    |-2---5---0-|-0-------------0-|
 
Interlude  1:08
|-------------------------------------|
|-3-2-2-0-0---------3-2-5-0-------3---|
|-----------2-2-------------2h4-2-----| 
|---------------0---------------------|
|-2---0---5------0--2---0-------------|
|-------------0-----------------------|


Verse 1:18

Pre Chorus 1:39

Chorus Part 1 1:44


"just give love to all, lets give love to all" part over and over 1:59     
|---------------------------------------------------------------------|
|-----0-----------------------0----------------------0----------------|
|-0-----2------------0----0-----2----------------0-----2-----------0--| 3x
|---4-----4-----4/5----0----4-----4-----4/5/7p0----4-----4-----4h5---0| 
|-----------0-----------------------0----------------------0----------|
|-2---5---0---0-----------2---5---0---0----------2---5---0---0--------|

   outro 2:46                                                                 
|-------------------|
|-------------------|
|-------------------|
|-4/5-4-------------|
|-------0-0\4-5-0-5-|
|-0-------------0---|
Comments