Creed - Is This The End Chords & Tabs

 

Is This The End Chords & Tabs

Creed Chords & Tabs

Version: 3 Type: Tab 0 ratings
1 star 2 stars 3 stars 4 stars 5 stars
comments

Is This The End Tab

name: Pocholou Ryan Lanza

artist: Creed

SongTitle: Is this the End

Tabs: Artist:  CREED
Song Title: IS THIS THE END
Album: SCREAM 3 THE ALBUM
Name:  POCHOLOU RYAN LANZA

Listening to this song the whole day with nothing to do, I decided to 
pick my guitar up and tab it myself.  Perfect or not, you decide.  But 
still, this is the best among the rest ?
Have fun!!!!

Drop D Tuning

INTRO 
e------------------------------------------
b------------------------------5-6-6p5-----
g---7------7/10-10-9/7--7--5h7---------7-5-
d------------------------------------------
a---5--------------------------------------
D----------------8-7----0--0-------0-------

e----------------------------------------------------
b-----6-3--------4------3--------6-6/5---------------
g---5-----5-0--3----3------2-----5-5/4-7/5---5/7-----
d----------------------------0---0-0---------0-------
a-------3-3------------------------------------------
D-0-3--------0-1------0-0----------------------------

note: intro and verse may not be the same

Pre chorus 1
e------------------------------------------
b------------------------------5-6-6p5-----
g---7------7/10-10-9/7--7--5h7---------7-5-
d------------------------------------------
a---5--------------------------------------
D----------------8-7----0--0-------0-------

e----------------------------1-----------0-----
b-----6-3--------------------4-----------3-----
g---5-----5-0--3-------------3-----------2-----
d----------------------------1-----------0-----
a-------3-3------------------1-----------0-----
D-0-3--------0-1-------------1-----------0-----

Strum for a few times

Chorus 1
e---0------------------7------------------5-----
b---3-----------------10------------------8-----
g---2------------------9------------------7-----
d---0------------------7------------------5-----
a---0------------------7------------------5-----
D---0------------------7------------------5-----

Strum slowly.  Listen to the CD for the timing.

[ Tab from: http://www.guitartabs.cc/tabs/c/creed/is_this_the_end_tab_ver_3.html ]
Pre chorus 2
e----------------------------------------------------------
b------------------------------5-6-6p5----------6-3--------
g---7------7/10-10-9/7--7--5h7---------7-5----5-----5-0--3-
d----------------------------------------------------------
a---5---------------------------------------------3-3------
D----------------8-7----0--0-------0--------0-3--------0-1-

e---1-----------0-0-0-0-0-------------------------
b---4-----------3-3-3-3-3/5-5/6-6/8-8/10-10-10----
g---3-----------2-2-2-2-2/4-4/5-5/7-7/9--9--9-----
d---1-----------0-0-0-0-0-------------------------
a---1-----------0-0-0-0-0-------------------------
D---1-----------0-0-0-0-0-------------------------

Chorus 2 (with heavy distortion)
e---------------------------------------
b---------------------------------------
g---------------------------------------
d---0-0-0-0-0-7-7-7-7-7-5-5-5-5-5-------
a---0-0-0-0-0-7-7-7-7-7-5-5-5-5-5-------
D---0-0-0-0-0-7-7-7-7-7-5-5-5-5-5-------

g------------------------------------------
d------------------------------------------
a----------5-5--7-7--9-9-10-10/12-12-------
D------------------------------------------

Bridge
e-----------------------------------------------------------
b-----------------------------------------------------------
g-----------------------------------------------------------
d---0-0-0-0-0-0-7-7-7-7-7-7-9-9-9-9-9-9-5-5-5-5-5-5-0-3-----
a---0-0-0-0-0-0-7-7-7-7-7-7-9-9-9-9-9-9-5-5-5-5-5-5-0-3-----
D---0-0-0-0-0-0-7-7-7-7-7-7-9-9-9-9-9-9-5-5-5-5-5-5-0-3-0-0-

Pre chorus 3
e---0--------------7--7--7--7--7-------5--------------------
b---3-------------10-10-10-10-10/12-10-8--------------------
g---2--------------9--9--9--9-9/11--9-7--------------------
d---0--------------7--7--7--7--7-------5--------------------
a---0--------------7--7--7--7--7-------5--------------------
D---0--------------7--7--7--7--7-------5--------------------

Repeat chorus 1 once

Chorus 2

Back to chorus 1


Listen to the CD for the timing.
Comments r welcome. Email me at zeus19_1999@yahoo.com
God Bless you all!!!

Comments