Creed - Is This The End Chords & Tabs

 

Is This The End Chords & Tabs

Creed Chords & Tabs

Version: 2 Type: Tab 0 ratings
1 star 2 stars 3 stars 4 stars 5 stars
comments

Is This The End Tab

   
SONG-IS THIS THE END
ARTIST-CREED(SCREAM 3 SOUNDTRACK)
TAB BY-BRANDON

TUNING-DROPPED D(DADGBE)
p-pull off
h-hammer on
\-slide down
/-slide up

INTRO (PLAY 4 TIMES)
E--------------------0-1--1p0--------1------------------1-1p0----------
B-3---6-6-5-3-3--1h3----------3-1--1---3-1---1-4---3----------3-1--1h3-
G---2--------------------------------------0-----3---2-----------------
D----------------------------------------------------------------------
A----------------------------------------------------------------------
D----------------------------------------------------------------------

5TH TIME
E--------------------0-1--1p0--------1-------------------5-5-5-5-5-5-5-5-5-
B-3---6-6-5-3-3--1h3----------3-1--1---3-1---1-4-4-4-4-4\3-3-3-3-3-3-3-3-3-
G---2--------------------------------------0---3-3-3-3-3\2-2-2-2-2-2-2-2-2-
D--------------------------------------------------------------------------
A--------------------------------------------------------------------------
D--------------------------------------------------------------------------

PRE CHORUS  (STRUM THESE CHORDS)
E-5---5---3--
B-5---5---3--
G-7---6---4--
D-7---7---5--
A-5---7---5--
D-x---x---x--

2ND PART OF PRE CHORUS
E------------------------------------
B------------------------------------
G-7-7/9-9/11-11-11-11/12-12/14-14-14-
D-0-0-0-0--0--0--0--0--0--0--0--0--0-
A-0-0-0-0--0--0--0--0--0--0--0--0--0-
D------------------------------------

BOTH PARTS OF PRE CHORUS AGAIN

PLAY INTRO 2 MORE TIMES

3RD TIME
E--------------------0-1--1p0--------1---------
B-3---6-6-5-3-3--1h3----------3-1--1---3-1---1-
G---2--------------------------------------0---
D----------------------------------------------
A----------------------------------------------
D----------------------------------------------
[ Tab from: http://www.guitartabs.cc/tabs/c/creed/is_this_the_end_tab_ver_2.html ]
E-----------5-5-5-5-5-9/10-10-10/12-12-12/13-13-13/15-15-15
B-4-4-4-4-4\3-3-3-3-3-6/-7--7--7/-9--9--9/10-10-10/12-12-12
G-3-3-3-3-3\2-2-2-2-2-5/-6--6--6/-8--8--8/-9--9--9/11-11-11
D----------------------------------------------------------
A----------------------------------------------------------
D----------------------------------------------------------

HEAVY PART 
(THREE TIMES)
E-------------------------------
B-------------------------------
G-------------------------------
D-0-0-0-0-0-7-7-7-7-8-5-5-5-5-5-
A-0-0-0-0-0-7-7-7-7-8-5-5-5-5-5-
D-0-0-0-0-0-7-7-7-7-8-5-5-5-5-5-

E-----------------------
B-----------------------
G-----------------------
D-0----2----4----5/7-7--
A-----------------------
D---00---00---00--------



(FIVE TIMES)
E----------------------------------------------
B----------------------------------------------
G----------------------------------------------
D-0-0-0-0-0-7-7-7-7-7-8-8-8-8-8-5-5-5-5-5-3-3-3
A-0-0-0-0-0-7-7-7-7-7-8-8-8-8-8-5-5-5-5-5-3-3-3
D-0-0-0-0-0-7-7-7-7-7-8-8-8-8-8-5-5-5-5-5-3-3-3

PRE CHORUS
E-5---5---3--
B-5---5---3--
G-7---6---4--
D-7---7---5--
A-5---7---5--
D-x---x---x--

E------------------------------------
B------------------------------------
G-7-7/9-9/11-11-11-11/12-12/14-14-14-
D-0-0-0-0--0--0--0--0--0--0--0--0--0-
A-0-0-0-0--0--0--0--0--0--0--0--0--0-
D------------------------------------

E-5---5---3--
B-5---5---3--
G-7---6---4--
D-7---7---5--
A-5---7---5--
D-x---x---x--

HEAVY
E-----------------------
B-----------------------
G-----------------------
D-0----2----4----5/7-7--
A-----------------------
D---00---00---00--------

(THREE TIMES)
E-------------------------------
B-------------------------------
G-------------------------------
D-0-0-0-0-0-7-7-7-7-8-5-5-5-5-5-
A-0-0-0-0-0-7-7-7-7-8-5-5-5-5-5-
D-0-0-0-0-0-7-7-7-7-8-5-5-5-5-5-

E-----------------------
B-----------------------
G-----------------------
D-0----2----4----5/7-7--
A-----------------------
D---00---00---00--------

(CLEAN)
E-5---5---3--
B-5---5---3--
G-7---6---4--
D-7---7---5--
A-5---7---5--
D-x---x---x--
Comments