Creed - Is This The End Chords & Tabs

 

Is This The End Chords & Tabs

Creed Chords & Tabs

Version: 1 Type: Tab 0 ratings
1 star 2 stars 3 stars 4 stars 5 stars
comments

Is This The End Tab

   
SONG-IS THIS THE END
ARTIST-CREED(SCREAM 3 SOUNDTRACK)
TAB BY-BRANDON

TUNING-DROPPED D(DADGBE)
p-pull off
h-hammer on
\-slide down
/-slide up

INTRO (PLAY 3 TIMES)
E--------------------0-1--1p0--------1------------------1-1p0----------
B-3---6-6-5-3-3--1h3----------3-1--1---3-1---1-4---3----------3-1--1h3-
G---2--------------------------------------0-----3---2-----------------
D----------------------------------------------------------------------
A----------------------------------------------------------------------
D----------------------------------------------------------------------

4TH TIME
E--------------------0----1p0--------1------------------1-1p0----------
B-3---6-6-5-3-3--1h3---3------3-1--1---3-1---1-4---3----------3-1--1h3-
G---2--------------------------------------0-----3---2-----------------
D----------------------------------------------------------------------
A----------------------------------------------------------------------
D----------------------------------------------------------------------
5TH TIME
E--------------------0-1--1p0--------1-------------------5-5-5-5-5-5-5-5-5-
B-3---6-6-5-3-3--1h3----------3-1--1---3-1---1-4-4-4-4-4\3-3-3-3-3-3-3-3-3-
G---2--------------------------------------0---3-3-3-3-3\2-2-2-2-2-2-2-2-2-
D--------------------------------------------------------------------------
A--------------------------------------------------------------------------
D--------------------------------------------------------------------------

PRE CHORUS  (STRUM THESE CHORDS)
E-5-----x-----x--
B-5----10-----9--
G-7-----9-----7--
D-7-----7-----5--
A-5-----7-----5--
D-x-----x-----x--

2ND PART OF PRE CHORUS
E---------------------------------
B---------------------------------
G-7-7/9-9/11-11-11-11/12-12/14-14-
D-0-0-0-0--0--0--0--0--0--0--0--0-
A-0-0-0-0--0--0--0--0--0--0--0--0-
D---------------------------------

BOTH PARTS OF PRE CHORUS AGAIN

1ST TIME
E--------------------0-1--1p0--------1------------------1-1p0----------
B-3---6-6-5-3-3--1h3----------3-1--1---3-1---1-4---3----------3-1--1h3-
G---2--------------------------------------0-----3---2-----------------
D----------------------------------------------------------------------
A----------------------------------------------------------------------
D----------------------------------------------------------------------
[ Tab from: http://www.guitartabs.cc/tabs/c/creed/is_this_the_end_tab.html ]
2ND TIME
E--------------------0-1--1p0--------1------------------1-1p0----------
B-3---6-6-5-3-3--1h3----------3-1--1---3-1---1-4---3----------3-1------
G---2--------------------------------------0-----3---2-------------0h2-
D----------------------------------------------------------------------
A----------------------------------------------------------------------
D----------------------------------------------------------------------

3RD TIME
E--------------------0-1--1p0--------1---------
B-3---6-6-5-3-3--1h3----------3-1--1---3-1---1-
G---2--------------------------------------0---
D----------------------------------------------
A----------------------------------------------
D----------------------------------------------

E-----------5-5-5-5-5-9/10-10-10/12-12-12/13-13-13/15-15-15
B-4-4-4-4-4\3-3-3-3-3-7/-8--8--8/10-10-10/11-11-11/13-13-13
G-3-3-3-3-3\2-2-2-2-2-6/-7--7--7/-9--9--9/10-10-10/12-12-12
D----------------------------------------------------------
A----------------------------------------------------------
D----------------------------------------------------------

   / HEAVY PART 
   | 
 3 | E-------------------------------
   | B-------------------------------
 T | G-------------------------------
   | D-0-0-0-0-0-7-7-7-7-8-5-5-5-5-5-
 I | A-0-0-0-0-0-7-7-7-7-8-5-5-5-5-5-
   | D-0-0-0-0-0-7-7-7-7-8-5-5-5-5-5-
 M |
   | E-----------------------
 E | B-----------------------
   | G-----------------------
 S | D-0----2----4----5/7-7--
   | A-----------------------
   \ D---00---00---00--------



(FIVE TIMES)
E----------------------------------------------
B----------------------------------------------
G----------------------------------------------
D-0-0-0-0-0-7-7-7-7-7-8-8-8-8-8-5-5-5-5-5-3-3-3
A-0-0-0-0-0-7-7-7-7-7-8-8-8-8-8-5-5-5-5-5-3-3-3
D-0-0-0-0-0-7-7-7-7-7-8-8-8-8-8-5-5-5-5-5-3-3-3

PRE CHORUS
E-5-----x----x------x--
B-5----10---12------9--
G-7-----9---11------7--
D-7-----7----9------5--
A-5-----7----9------5--
D-x-----x----x------x--

E---------------------------------
B---------------------------------
G-7-7/9-9/11-11-11-11/12-12/14-14-
D-0-0-0-0--0--0--0--0--0--0--0--0-
A-0-0-0-0--0--0--0--0--0--0--0--0-
D---------------------------------

E-5-----x-----x--
B-5----10-----9--
G-7-----9-----7--
D-7-----7-----5--
A-5-----7-----5--
D-x-----x-----x--

HEAVY
E-----------------------
B-----------------------
G-----------------------
D-0----2----4----5/7-7--
A-----------------------
D---00---00---00--------

   / HEAVY PART 
   | 
 3 | E-------------------------------
   | B-------------------------------
 T | G-------------------------------
   | D-0-0-0-0-0-7-7-7-7-8-5-5-5-5-5-
 I | A-0-0-0-0-0-7-7-7-7-8-5-5-5-5-5-
   | D-0-0-0-0-0-7-7-7-7-8-5-5-5-5-5-
 M |
   | E-----------------------
 E | B-----------------------
   | G-----------------------
 S | D-0----2----4----5/7-7--
   | A-----------------------
   \ D---00---00---00--------

(CLEAN)
E-5-----x-----x--
B-5----10-----9--
G-7-----9-----7--
D-7-----7-----5--
A-5-----7-----5--
D-x-----x-----x--
Comments