Creed - Is This The End Chords & Tabs

 

Is This The End Chords & Tabs

Creed Chords & Tabs

Version: 2 Type: Bass Tab 0 ratings
1 star 2 stars 3 stars 4 stars 5 stars
comments

Is This The End Bass Tab

Title: Is This The End?
Author: Creed
Album: Scream 3 SoundTrack
Bassist: Brian Marshall
Tabbed By: James Colvin jamesc127@msn.com

I put in some of Brian Marshall's fill notes, but you'll
get to find the rest.
I also play all of this song in a higher octive, but you
can drop D if you like. I will not drop D in this tab.

Open
E|-------------------------------------------
A|-5-----5--8-5-3--3-5-6--6-8-6-5--------5---
D|---8-7--------------------------7-5-8-7----
G|-------------------------------------------

E|-------------------------------------------
A|-5-----5--8-5-3--3-5-6--6-8-6-5-----------5
D|---8-7-----------------------------------5-
G|---------------------------------5-7777-5--

Verse
E|-------------------------------------------
A|-5-----5--8-5-3--3-5-6--6-8-6-5--------5---
D|---8-7--------------------------7-5-8-7----
G|-------------------------------------------

E|-------------------------------------------
A|-5-----5--8-5-3--3-5-6--6-8-6-5------------
D|---8-7-------------------------------------
G|-------------------------------------------

E|-------------------------------------------
A|-5-----5--8-5-3--3-5-6--6-8-6-5------------
D|---8-7-------------------------------------
G|-------------------------------------------
[ Tab from: http://www.guitartabs.cc/tabs/c/creed/is_this_the_end_btab_ver_2.html ]
Chorus 1 (2x)
E|-------------------------------------------
A|-5-----------------------------------------
D|---7---5-----------------------------------
G|-------------------------------------------

Verse
E|-------------------------------------------
A|-5-----5--8-5-3--3-5-6--6-8-6-5--------5---
D|---8-7--------------------------7-5-8-7----
G|-------------------------------------------

E|-------------------------------------------
A|-5-----5--8-5-3--3-5-6--6-8-6-5--------5---
D|---8-7--------------------------7-5-8-7----
G|-------------------------------------------

E|-------------------------------------------
A|-5-----5--8-5-3--3-5-6--6-8-6-5-----------5
D|---8-7-----------------------------------5-
G|---------------------------------5-7777-5--

Chorus 2 (3x)
E|-------------------------------------------
A|-5--------5--7-----------------------------
D|---7---5--------4--5--6--------------------
G|-------------------------------------------

Bridge (5x)
E|-------------------------------------------
A|-5-----------8--8--------------------------
D|---7-----5---------------------------------
G|------4------------------------------------

Chorus 2 (3x)
E|-------------------------------------------
A|-5--------5--7-----------------------------
D|---7---5--------4--5--6--------------------
G|-------------------------------------------
Comments