Creed - Inside Us All Chords & Tabs

 

Inside Us All Chords & Tabs

Creed Chords & Tabs

Version: 4 Type: Tab 1 rating
1 star 2 stars 3 stars 4 stars 5 stars
comments

Inside Us All Tab

   
Song - Inside us all
Artist- CREED
Album- Human Clay 
Tabbed by-  Adam: The guy who tabs stuff. 

  The rhythm in the beginning is simple when heard but difficult to tab so don’t expect to get it without having the CD handy.  Once you get the fingering down it’s really easy. PS this isn’t exactly the way that Mark Tremonti plays it but it’s close enough to fool just about anyone but him.
Chord progression during verse (if you’re too lazy to read the taband get the picking ) goes E minor, G, D. and C, G, D during the chorus    
[ Tab from: http://www.guitartabs.cc/tabs/c/creed/inside_us_all_tab_ver_4.html ]
 Intro./Verse 
     Emin                            G
e---------------------------------------------------------------
B--------------------------5------------------------------5-----
G----------------------------4------------------------------4---
D------4-----4/5---5-----------5-----5-----5/7----5-----------5-
A---------------------------------------------------------------
E---0-----0------0----0-0----------3----3-------3----3-3--------
      D                        							
e-----------------------------------------------------------------------------------
B-----------------------------------------------------------------------------------
G--------------------------------------------------------------12----11----9h11p9---
D------4---4/5-----7-----5-----4-5------5------5/7---------0------0-----------------
A---5----5------5-----5-----5-------5------5--------5-------------------------------
E-----------------------------------------------------------------------------------

 Chorus/End Jam
        C       G       D    D    D     D
E-------0-------3-------2--h-3----2--h--3--------------------
B-------1-------3-------3----3----3-----3-------------------
G-------0-------0-------2----2----2-----2-------------------
D-------2-------0-------0----0----0-----0------------------
A-------3-------2-------0----0----0-----0------------------
E-------x-------3-------x----x----x-----x-------------------
    C                        G     D     D    D     D
e---0---3-------3------------3-----2--h--3----2--h--3
B---1-----1-------1----------3-----3-----3----3-----3
G---0--------0-------0-------0-----2-----2----2-----2
D---2-------------------2----0-----0-----0----0-----0
A---3------------------------2-----0-----0----0-----0
E---x------------------------3-----x-----x----x-----x-

If you've got a comment question or correction Email me at a_danis@earthlink.net 
or if you figure out a simpler or more correct way to do it, feel free to re-tab it
 

Comments