Creed - Inside Us All Chords & Tabs

 

Inside Us All Chords & Tabs

Creed Chords & Tabs

Version: 3 Type: Tab 0 ratings
1 star 2 stars 3 stars 4 stars 5 stars
comments

Inside Us All Tab


tab: Artist: Creed
Album:  Human Clay
Title:  Inside Us All
Tabbed by "Kid Texas"
Tabbed for Standard Tuning (I believe Mark Plays it drop-D).

Intro/Verse:Play four times (Clean)
E-|---------------------------0---------------------------------0------|
B-|-----------------------------0---------------------------------0----|
G-|------------------------0------0------2------4------------0------0--|
D-|------4-----5---------5-----------0------0-----0--------0-----------|
A-|--------2-----3-----3-----------------------------------------------|
E-|--0-0-----0-----0-------------------3------3-------3----------------|

E-|----------------------------------------------------------------------|
B-|------------------------------------------------/8------7------5h7p5--|
G-|----------------------------------------------------------------------|
D-|----4-----5-----7-----5-----4/5-----4-----5---------------------------|
A-|------2-----3-------------------------2-----3-------------------------|
E-|--0-----0----------0-----0-------0------0-----0------0------0---------|
End of Intro/Verse

Chorus: (Distortion)
E-|-----------------------------------------------------------------------|
B-|-----------------------------------------------------------------------|
G-|--5--5--5-5-5--5-5-4--4--4-4-4--4-4-7--7--7-7-7--7-7-7--7--7-7-7--7-7--|
D-|--5--5--5-5-5--5-5-5--5--5-5-5--5-5-7--7--7-7-7--7-7-7--7--7-7-7--7-7--|
A-|--3--3--3-3-3--3-3-5--5--5-5-5--5-5-5--5--5-5-5--5-5-5--5--5-5-5--5-5--|
E-|---------------3-3-3--3--3-3-3--3-3-0--0--0-0-0--0-0-0--0--0-0-0--0-0--|
                  p.m.            |___|                            
|___|

E-|----------3--------------------------------------------------------------|
B-|------------3------------------------------------------------------------|
G-|--4--5--5-----5--5-5-4--4--4-4-4--4-4-7--7--7-7-7--7-7-7--7--7-7-7--7-7--|
D-|--4--5--5-----5--5-5-5--5--5-5-5--5-5-7--7--7-7-7--7-7-7--7--7-7-7--7-7--|
A-|--2--3--3-----3--3-3-5--5--5-5-5--5-5-5--5--5-5-5--5-5-5--5--5-5-5--5-5--|
E-|-----------------3-3-3--3--3-3-3--3-3-0--0--0-0-0--0-0-0--0--0-0-0--0-0--|
                    p.m.            |___|            |___|           
|___|
[ Tab from: http://www.guitartabs.cc/tabs/c/creed/inside_us_all_tab_ver_3.html ]
E-|----------3---------------------------------------------------------|
B-|------------3-------------------------------------------------------|
G-|--4--5--5-----5--5-5-4--4--4-4-4--4-4-7--7--7-7-7--7-7-7--7--7-7-7--|
D-|--4--5--5-----5--5-5-5--5--5-5-5--5-5-7--7--7-7-7--7-7-7--7--7-7-7--|
A-|--2--3--3-----3--3-3-5--5--5-5-5--5-5-5--5--5-5-5--5-5-5--5--5-5-5--|
E-|-----------------3-3-3--3--3-3-3--3-3-0--0--0-0-0--0-0-0--0--0-0-0--|
End Of Chorus       p.m.            |___|            |___|

Repeat Verse 3 times and then Chorus

1st Bridge:Play 3 times
Play this 2 times
E-|----------------------------------|
B-|----------------------------------|
G-|-------7-----7-----7-----7-----7--|
D-|---4-5---4-5---4-5---4-5---4-5----|
A-|----------------------------------|
E-|----------------------------------|

Play this 1 time:
E-|------2-2--2-2-2-------2-2--2-2-2--|
B-|------3-3--3-3-3-------3-3--3-3-3--|
G-|------2-2--2-2-2-------2-2--2-2-2--|
D-|--3-3-0-0--0-0-0---3-3-0-0--0-0-0--|
A-|--3-3--------------3-3-------------|
E-|--1-1--------------1-1-------------|
End of 1st Bridge

Repeat Chorus then 1st Bridge(only one time through)

2nd Bridge: (Distortion)
Play this 2 times very fast:
E-|---------------------------------------------------------------------------|
B-|--18p17p15-18p17p15-18p17p15-18p17p15-18p17p15-18p17p15-18p17p15-18p17p15--|
G-|---------------------------------------------------------------------------|
D-|---------------------------------------------------------------------------|
A-|---------------------------------------------------------------------------|
E-|---------------------------------------------------------------------------|

Play this 2 times
E-|------------------------|
B-|--15-15----15-18-15-----|
G-|--------17----------17--|
D-|------------------------|
A-|------------------------|
E-|------------------------|

Play 5 times:
E-|----------------------------------------------------|
B-|--18p17p15h17-18p17p15h17p-18p17p15h17-18p17p15h17--|
G-|----------------------------------------------------|
D-|----------------------------------------------------|
A-|----------------------------------------------------|
E-|----------------------------------------------------|
End of 2nd Bridge

A train like sound comes in and end by playing the 1st Bridge as the
song fades away.
_____________________________________________________________________________________
 
Comments