Creed - Inside Us All Chords & Tabs

 

Inside Us All Chords & Tabs

Creed Chords & Tabs

Version: 2 Type: Tab 0 ratings
1 star 2 stars 3 stars 4 stars 5 stars
comments

Inside Us All Tab

Title:  Inside Us All
Artist:  Creed
Tabbed by:  George Hawxhurst

This is a pretty neat song, but not alot of people tabbed it.  I'm 
pretty sure this is correct, but if you have any suggestions or
questions, Email me at Lazygeorge56@AOL.com

[This was created with TabIt for Windows version 1.57]
[ Tab from: http://www.guitartabs.cc/tabs/c/creed/inside_us_all_tab_ver_2.html ]
E  :----------------|----------------|----------------|----------------|
B  :----------------|--------5-------|----------------|----5-----------|
G  :----------------|----------4-----|----------------|------4---------|
D  :----4-----5-----|5-5---------5---|----5-----7-----|5-------5-------|
A  :------2-----2---|----2---------5-|------5-----5---|----------5-----|
E  :0-------0-----0-|------0---------|3-------3-----3-|--3---------2--|
B  :----------------|----------------|-----------------|--------------|
E  :----------------|----------------|-----------------|--------------|  4x  
G  :----------------|----------------|------------12---|11---9-h11\---|
D  :4-----5-----7---|--5-----4-5-----|5-----7--------0-|---0----------|
A  :--5-----5-----5-|----5-----------|--5-----5--------|--------------|
E  :----2-----2-----|2-----2-----2---|----2-----2------|--------------|

E  :-------|-0--3--2-h-3-2-h--|3-0-3-----3-----|--3--2-h-3-2-h-3--|
B  :-------|-1--3--3---3-3----|3-1---1-----1---|--3--3---3-3---3--|
G  :-------|-0--0--2---2-2----|2-0-----0-----0-|--0--2---2-2---2--|
D  :-------|-2--0--0---0-0----|0-2-------------|2-0--0---0-0---0--|
A  :-------|-3--2--0---0-0----|0-3-------------|--2--0---0-0---0--|
E  :-------|-x--3-------------|----------------|--3---------------|

Comments