Creed - Inside Us All Chords & Tabs

 

Inside Us All Chords & Tabs

Creed Chords & Tabs

Version: 1 Type: Bass Tab 0 ratings
1 star 2 stars 3 stars 4 stars 5 stars
comments

Inside Us All Bass Tab

Creed
Inside Us All - Human Clay
Tab by: Joshua Stuart eagles@silverlink.net


I love this song, I don't know why anyone tabbed it, so I did. Anyway enjoy

INTRO(NO BASS)
G|---------------
D|---------------
A|---------------
D|---------------

00:14

G|------------------------------------------------
D|------------------------------------------------
A|------------------------------------------------
D|2--2-2-2--2-5--5-5-5--5-0--0-0-0--0-0--0-0-0--0-

"WHEN YOU'RE ALL ALONE":

G|------------------------------------------------
D|------2------------5-5--------------------------
A|----2----2-------5------------------------------
D|2---------4-5-----------0--0-0-0--0-0--0-0-0--0-

G|------------------------------------------------
D|---2---2-2---------5-5--------------------------
A|-----2----2------5-----------------------/7-5--\
D|2-2--------4-5----------0--0-0-0--0-0--0--------

CHORUS

G|-----------------------------------------------------------------------
D|-----------------------------------------------------------------------
A|3-3-3--3-3-3----------------------------------------------3H5-5-5-5-5-2
D|--------------3-3-5-5-5\/5--3H5-3-0-0--0-0-0-3H5-3-0-0--0--------------

G|-----------------------------------------------------------------------
D|-----------------------------------------------------------------------
A|3-3-3--3-3-3-------------------------------------------3H5-5--3-3---2--
D|--------------3-3-5-5-5\/5--3H5-3-0-0--0-0-0-555-333-0------------3----

G|-----------------------------------------------------------------------
D|--------------------------------------------------------------4-5-7--7\
A|3-3-3--3-3-3---------------------------5-5-5---------------------------
D|--------------3-3-5-5-5\/5--3H5-3-0-0--------555-333-0--0-0-0----------

01:36

G|------------------------------------------------
D|-----------------5H7-5---------------/14-12--12\
A|------------------------------------------------
D|2--2-2-2--2-5--5--------0--0-0-0--0-------------

G|------------------------------------------------
D|--22---2-2----55---5-5---------------4-5-7--5-4-
A|-----2----2------5------------------------------
D|2----------4-5----------0--0-0-0--0-------------

G|------------------------------------------------
D|------2-------5----5-5---------------4-5-7--5-4\
A|----2----2-------5------------------------------
D|2---------4-5-----------0--0-0-0--0-------------

CHORUS

G|-----------------------------------------------------------------------
D|-----------------------------------------------------------------------
A|3-3-3--3-3-3---------------------------5-5-5-------------3H5-5--------2
D|--------------3-3-5-5-3H5-5-3H5-3-0-0--------555-333-0-0-------0-0-0---

G|-----------------------------------------------------------------------
D|-----------------------------------------------------------------------
A|3-3-3--3-3-3---------------------------3H5-5---3H5-------55-3H5-5-5-5-2
D|--------------3-3-5-5-5\/5--3H5-3-0-0--------0-----3-0-0--------------

G|------------------------------------------------------------7----X7----
D|-------------------------------------------------------45-7---45-7--7-5
A|3-3-3--3-3-3---------------------------5-5-5---------------------------
D|--------------3-3-5-5-5\/5-5-3H5-3-0-0-------555-3-3-0-----------------

02:59
[ Tab from: http://www.guitartabs.cc/tabs/c/creed/inside_us_all_btab.html ]
G|-----------------------------------------------------------------------
D|----------------------------------------------5-5-5-4------------------
A|3-3-3--3-3-3--5-3----------------------3H5-5--------------3H5-5-5-----2
D|------------------5-5-3H5-5--3H5-3-0-0----------------0-0---------0-0--

G|-----------------------------------------------------------------------
D|-----------------------------------------------------------------------
A|3-3-3--3-3H5P3-5-7---------------------3H5-5------------3H5-5-5/7-7/9-9
D|------------------5-5-/5-5-7-7-5-5-0-0-------555-333-0-----------------

G|----------------------------------------------------------------------
D|-------------------------------------------------5-3-------------------
A|3-3-3--3-3-3--5-3----------------------3H5-5-3-5----5-5-0-3-5-5/7-7/9-9
D|------------------5-5\-5-0-5-3-3-0-0-0--------------------------------

G|-----------------------------------------------------------------------
D|-----------------------------------------------------------------------
A|3-3-3-3-3-5-3-------------------------------------------------10-10-10-
D|--------------3-3-5-5-/5-5/7-7-7/9-9-9/11-11-11/-0-0-11P12-12----------

G|---------------------------------------
D|---------------------------------------
A|9-9-9---------------------12-10-9-9----
D|------0-0-11P12-12-12--12-----------9-9

G|----------------------------------------------------------------------------
D|-------------------------------------------------3------------------4-------
A|3-3-3--3-3-5---------------------------3H5-5-3H5---5-----3H5-5-5-3H5--5--2-2
D|--------------3-3-5-5-5\/5--3H5-3-0-0----------------0-0--------------------


G|-------------------------------------------------------------7---7---7---7-\
D|-----------------------------------------------5-5-5-5-4-4----7-5-7-5-7-5---
A|3-3-3--3-3-3-------------------------3H5-5-5-5-------------5----------------
D|--------------3-3-5-5-5\/5-3H5-3-0-0----------------------------------------

G|----------------------------------------------------------------------------
D|-----------------------------------------------7-5-4-----------------7-5-4-7
A|3-3-3--3-3-3-------------------------3H5-5-5-5-------------3H5-5-5-5--------
D|--------------3-3-5-5-5\/5-3H5-3-0-0-----------------0-0-0------------------

G|----------------------------------------------------------------------------
D|----------------------------------------------------------------------------
A|3-3-3-3-3-3-5-5-3---------------------3H5-5-5\10-10-10-9-9-9-----3H5-5-5-3H5-5
D|------------------5-5-5\/5-3H5-3-0-0-------------------------0-0------------

G|------------------------------------------------------------------------------------------
D|------------------------------------------------------------------------------------------
A|3-3-3-3-3-3-3\5-5-5\7-7-7--------------------------------3H5-5-5-3H5-5-5---3H5-5-3H5-5-2-2
D|--------------------------5-5-5-5\-5-5-5-3H5-3-3-3-0-0-0-----------------0----------------

G|-------------------------------------------------------------7---7---7---7-\
D|-------------------------------------------5-5-5-5-4-4-4------7-5-7-5-7-5---
A|3-3-3--3-3-3-------------------------3H5-5----------------------------------
D|--------------3-3-5-5-5\/5-3H5-3-0-0---------------------0-0----------------

G|----------------------------------------------------------------------------
D|-----------------------------------------------------------5-5-5-5-4-4-4----
A|3-3-3--3-3-3-------------------------3H5-5-3H5-5-----3H5-5---------------2-2
D|--------------3-3-5-5-5\/5-3H5-3-0-0-------------0-0------------------------

Fade out

END HOW EVER YOU WANT IT
Comments