Creed - Illusion Solo Chords & Tabs

 

Illusion Solo Chords & Tabs

Creed Chords & Tabs

Version: 1 Type: Tab 0 ratings
1 star 2 stars 3 stars 4 stars 5 stars
comments

Illusion Solo Tab

Song:Illusion  (solo)
Artist:Creed
Album:My Own Prison
Submitted:Smashbox
Notes: I cant remeber the correct tuning or timing

e---------------------------------------------------------------------
b---------------------------------------------------------------------
g---------------------------------------------------------------------
D-----------------------------------------7---------------------------
A--5^^-------3-3-3h5-3-3-3h5---5-7-8--7-8----7-7-7h8-5-5-5h7-3-5^^----
E---------------------------------------------------------------------
[ Tab from: http://www.guitartabs.cc/tabs/c/creed/illusion_solo_tab.html ]
e---------------------------------------------------------------------
b---------------------------------------------------------------------
g-----------------6-7-9-7-6-------------------------------------------
D-----------5-7-8-----------8-7-5-------------------------------------
A----5-7-8--------------------------8-7-5-7-8-5-7-8-5-7-8-5-7-8-5^^---
E---------------------------------------------------------------------

e---------------------------------------------------------------------
b---------------------------------------------------------------------
g-------6-7-6-7-6-6-7-9-7-6-----------6-7-6-7-6-6-7-9-7-6-------------
D-----7----------------------8-7----7---------------------8-7---------
A--5-----------------------------5------------------------------------
E---------------------------------------------------------------------

         Sturm This.   Power Chords
e--10------------------------------------------------------------------
b----------------------------------------------------------------------
g---7------------------7--3-5-2----------------------------------------
D----------------------7--3-5-2----------------------------------------
A----------------------5--1-3-0----------------------------------------
E----------------------------------------------------------------------

     Questions, Comments, Corrections, Punnkstar@aol.com
Comments