Creed - Illusion Chords & Tabs

 

Illusion Chords & Tabs

Creed Chords & Tabs

Version: 3 Type: Bass Tab 0 ratings
1 star 2 stars 3 stars 4 stars 5 stars
comments

Illusion Bass Tab

Intro: 6x
E--3-3-0---0
A-2------5--
D-------4---
G-----------

Verse 1: 1x
E---------33333333--00--00---------33333333--00--00
A-22222222----------------22222222-----------------
D--------------------------------------------------
G--------------------------------------------------

Chorus: 3x
E--3-3-0---0
A-2------5--
D-------4---
G-----------
[ Tab from: http://www.guitartabs.cc/tabs/c/creed/illusion_btab_ver_3.html ]
Verse 2: 1x
E---------33333333--00--00--------33333333--00--0(12)/
A-22222222----------------22222222--------------------
D-----------------------------------------------------
G-----------------------------------------------------

Chorus(same as first): 1x
E--3-3-0---0
A-2------5--
D-------4---
G-----------

Guitar Solo: 8-12x
E--3-3-0---5-0
A-2-------4---     Slow
D-------------
G-------------

Chorus:1x
E--3-3-0---0
A-2------5--
D-------4---
G-----------

"Just an Illusion" Part:a few times
E----------------------------------
A--4444-5-7----0-4-5-7-5-4-0-------
D----------------------------------
G----------------------------------

After That do the Intro/Chorus a few times until end of song and hold out last
note!! Have Fun!!!!!!If you like, send me an email at phipster224@hotmail.com
Comments