Creed - Illusion Chords & Tabs

 

Illusion Chords & Tabs

Creed Chords & Tabs

Version: 1 Type: Bass Tab 0 ratings
1 star 2 stars 3 stars 4 stars 5 stars
comments

Illusion Bass Tab

Song: Illusion
Artist: Creed
Album: My Own Prison

	The person before me got it all down except for the
guitar solo and part of the chorus. This should be the
right way. If youe not sure try playing along with
the song. Any questions or comments my e-mail is:
dirtman52@yahoo.com

Tuning:  Drop D (DADG)
                 
Intro/Chorus

G: ----------------------------------     
D: ----------------------4----------- 
A: --2----------------------5--------
D: ------3--3b--0-------------0------
[ Tab from: http://www.guitartabs.cc/tabs/c/creed/illusion_btab.html ]
Verse
G: --------------------------------------------------
D: --------------------------------------------------
A: -2-2-2-2-2-2--------------------------------------
D: --------------3-3-3-3-3-3-3-3-3-3---00---00---00--

Guitar solo
G: ----------------------------------------------
D: -0-----------------2----0------3------------2      
A: ------1----3---0-------------1----3----0------
D: ----------------------------------------------

Fast Part
G: ----------------------------------------
D: ----------------------------------------    
A: ----------------------------------------
D: --------4-5-4-5-0----0-4-5-7-5-4-0------

Song Format-
Intro-6x
Verse-4x
Chorus-4x
Verse-4x
Chorus-4x
Guitar Solo-repeat a bunch (play slowly)
Chorus-4x
Cool Part-repeat a bunch also (play really fast)
Corus-4x and stop on second note 4th time through 

Comments