Creed - Higher Chords & Tabs

 

Higher Chords & Tabs

Creed Chords & Tabs

Version: 3 Type: Tab 1 rating
1 star 2 stars 3 stars 4 stars 5 stars
comments

Higher Tab

#----------------------------------PLEASE NOTE--------------------------------#
#This file is the author's own work and represents their interpretation of the#
#song. You may only use this file for private study, scholarship, or research.#
#-----------------------------------------------------------------------------#
#-- File created with Instab - http://www.pconline.com/~smcarey/instab.html --#
#-----------------------------------------------------------------------------#

Author/Artist: Creed
Title: Higher
Album: Human Clay
Transcribed by: Nicky P.
Email: wetwilly543@yahoo.com

First of all, this is an awesome song. Make sure you tune down to D, or it ain't gonna sound awesome :)

-|----------------------------------------------------------------------------
-|----------------------------------------------------------------------------
-|-7-9-/-11-9-11-/-12-11--9--11-11-11p-h9-9--11--9-9p-7h-7--9-9--7-7-7-7------
-|-0-0-/-0--0-0--/-0--0---7--7--7---------7--7---7-------5--5-5--5-5-5-5------
-|------------------------7--7--7---------7--7---7-------5--5-5--5-5-5-5------
-|----------------------------------------------------------------------------
   Intro                                                                      
[ Tab from: http://www.guitartabs.cc/tabs/c/creed/higher_tab_ver_3.html ]
-|--------------------------|-------------------------------------------------
-|-12-11-11-11--12-11-9-7-5-|-------------------------------------------------
-|-0--0--0--0---0--0--0-0-0-|-------------------------------------------------
-|--------------------------|-------------------------------------------------
-|--------------------------|-------------------------------------------------
-|--------------------------|-------------------------------------------------
                                                                              

-|-------------------------------------------0---0---|------------------------
-|-3--3-3-3-3-3-3--0--0-0-0-0-0-0--3--3-3-3---3---3--|------------------------
-|-2--2-2-2-2-2-2--0--0-0-0-0-0-0--2--2-2-2----0---0-|------------------------
-|-0--0-0-0-0-0-0--0--0-0-0-0-0-0--0--0-0-0----------|------------------------
-|-0--0-0-0-0-0-0--0--0-0-0-0-0-0--0--0-0-0----------|------------------------
-|---------------------------------------------------|------------------------
    "When dreamin"          It keeps doing this. You can easily follow it!    

-|----------------------------------------------------------------------------
-|--------------------------------------------------------------/88888--------
-|--------------------------------------------------------------/77777--------
-|----------------------------------------------------------------------------
-|-4-4-4-4-4-4-4-4-4-4-4-4-4-4-4-4-5-5-5-5-5-5-5-5-5-5-5-5-5-5-5--------------
-|-4-4-4-4-4-4-4-4-4-4-4-4-4-4-4-4-5-5-5-5-5-5-5-5-5-5-5-5-5-5-5--------------
   pm...........................................................              

-|----------------------------------------------------------------------------
-|----------------------------------------------------------------------------
-|-----------------------6-7-p9-6h-7v-----------------------------------------
-|-7-7-7-7-7-7-7------------------------7-7--------4b-------------------------
-|-5-5-5-4-5-5-5-5-4-0------------------4-5--5-4-0----------------------------
-|---------------5-4-0-----------------------5-4-0----------------------------
    "Can you take me Higher??!!"                                              

Comments