Creed - Higher Chords & Tabs

 

Higher Chords & Tabs

Creed Chords & Tabs

Version: 10 Type: Tab 0 ratings
1 star 2 stars 3 stars 4 stars 5 stars
comments

Higher Tab

   
Higher
Written and performed by Creed
From the album "Human Clay"
Transcribed by Halfdan Baadsvik (halfdan@eskobar.nu)

I've updated my previous tab with  a  few corrections and
I've included a tab explenation (some people don't under-
stand my tabs).
Thanks to Lars Havro for some help.

Tune to drop D (low to high DADGBe).

Intro
 D                               A

-----------------------------------------------------------
-----------------------------------------------------------
-7-7-9-9-9/11-11-9-11-11/12-11-9-9-9-11-11-11^9^7-9-9-11-9-
-0-0-0-0-0----0--0-0--0-----0--0-7-7-7--7--7------7-7-7--7-
-----------------------------------------------------------
-----------------------------------------------------------

 G                 D
                                     PM-|
-----------------------------------------------------------
-------------------8-7-7-7-5-7-7-7-7-----------------------
-7-7-9-9-7-7-7-7-7-7-7-7-7-7-7-7-7-7-----------------------
-5-5-5-5-5-5-5-5-5-0-0-0-0-0-0-0-0-0-----------------------
-------------------------------------0-0-------------------
-------------------------------------0-0-------------------

 D                               A

-----------------------------------------------------------
-----------------------------------------------------------
-7-7-9-9-9/11-11-9-11-11/12-11-9-9-9-11-11-11^9^7-9-9-11-9-
-0-0-0-0-0----0--0-0--0-----0--0-7-7-7--7--7------7-7-7--7-
-0-0-0-0-0----0--0-0--0-----0--0-7-7-7--7--7------7-7-7--7-
-0-0-0-0-0----0--0-0--0-----0--0-7-7-7--7--7------7-7-7--7-

 G                 D   
                   PM- - - - - - - -|
-----------------------------------------------------------
-----------------------------------------------------------
-7-7-9-9-7-7-7-7-7-----------------------------------------
-5-5-5-5-5-5-5-5-5-------------------0---------------------
-5-5-5-5-5-5-5-5-5-5-0-0-0-5-0-0-5-0-0---------------------
-5-5-5-5-5-5-5-5-5-5-0-0-0-5-0-0-4-0-0---------------------


"When dreaming..."
 Dadd9               G5
                                           Hold- - - - - |
-0--0--0-0-0--0--x-x-x--x--x-x-x--x--x-x-|-5------5--------
-3--3--3-3-3--3--x-x-8--8--8-8-8--8--x-x-|---8------8------
-2--2--2-2-2--2--x-x-7--7--7-7-7--7--x-x-|-----7------7----
-0--0--0-0-0--0--x-x-5--5--5-5-5--5--x-x-|--------------5--
-0--0--0-0-0--0--x-x-5--5--5-5-5--5--x-x-|-----------------
-0--0--0-0-0--0--x-x-5--5--5-5-5--5--x-x-|-----------------


"So let's go there..."
  G5/Gb              G5
  PM- - - - - - - - - - - - - - - - -|
-------------------|-------------------|------------------
-------------------|-------------------|------------------
*-----------------*|*-----------------*|------------------
*-----------------*|*-----------------*|------------------
--5-5-5-5-5-5-5-5--|--5-5-5-5-5-5-5-5--|------------------
--4-4-4-4-4-4-4-4--|--5-5-5-5-5-5-5-5--|------------------


"C'mon, let's go there..."
  G5/Gb              G5
  PM- - - - - - - - - - - - - - - - -|
-------------------|--------------------12/15-15-15-15-15--
-------------------|--------------------12/15-15-15-15-15--
*-----------------*|---------------------------------------
*-----------------*|---------------------------------------
--5-5-5-5-5-5-5-5--|--5-5-5-5-5-5-5-5----------------------
--4-4-4-4-4-4-4-4--|--5-5-5-5-5-5-5-5----------------------


"Can you take higher..."
 D5    Dmaj5/Db G5   G5/Gb  D5
                                               ~~~~
-----------------------------------------------------------
-----------------------------------------------------------
-7-7-7-6-6-6---------------------6--7--9^7^6--7------------
-7-7-7-7-7-7----5-----4-----0------------------------------
-5-5-5-4-4-4----5-----5-----0------------------------------
----------------5-----4-----0------------------------------


"To a place where..."
 D5    Dmaj5/Db G5    G5/Gb D5
                                  1/4~~~~~~~
-----------------------------------------------------------
-----------------------------------_ _ _ _-----------------
-7-7-7-6-6-6----------------------/-------)----------------
-7-7-7-7-7-7----5-----4-----0----4--------4-(^0)-----------
-5-5-5-4-4-4----5-----5-----0------------------------------
----------------5-----4-----0------------------------------

[ Tab from: http://www.guitartabs.cc/tabs/c/creed/higher_tab_ver_10.html ]
"Can you take higher..."
 D5    Dmaj5/Db G5    G5/Gb D5
                                               ~~~~
-----------------------------------------------------------
-----------------------------------------------------------
-7-7-7-6-6-6---------------------6--7--9^7^6--7------------
-7-7-7-7-7-7----5-----4-----0------------------------------
-5-5-5-4-4-4----5-----5-----0------------------------------
----------------5-----4-----0------------------------------


"To a place with..."
 D5    Dmaj5/Db G5    G5/Gb D5

-----------------------------------------------------------
-----------------------------------------------------------
-7-7-7-6-6-6-----------------------------------------------
-7-7-7-7-7-7----5-----4-----0------------------------------
-5-5-5-4-4-4----5-----5-----0------------------------------
----------------5-----4-----0------------------------------


Bridge
 D                               A

-----------------------------------------------------------
-----------------------------------------------------------
-7-7-9-9-9/11-11-9-11-11/12-11-9-9-9-11-11-11^9^7-9-9-11-9-
-0-0-0-0-0----0--0-0--0-----0--0-7-7-7--7--7------7-7-7--7-
-0-0-0-0-0----0--0-0--0-----0--0-7-7-7--7--7------7-7-7--7-
-0-0-0-0-0----0--0-0--0-----0--0-7-7-7--7--7------7-7-7--7-

 G                 D
                   PM- - - - - - - -|
-----------------------------------------------------------
-----------------------------------------------------------
-7-7-9-9-7-7-7-7-7-----------------------------------------
-5-5-5-5-5-5-5-5-5-----------------------------------------
-5-5-5-5-5-5-5-5-5-5-0-0-0-5-0-0-5-0-----------------------
-5-5-5-5-5-5-5-5-5-5-0-0-0-5-0-0-4-0-----------------------


"Up high I feel..."
 D            A            G           D
                                       PM- - - - - - - -|
-----------------------------------------------------------
-----------------------------------------------------------
-----------------------------------------------------------
-0--0-0--0-0--7--7-7--7-7--5--5-5--5-5---------------------
-0--0-0--0-0--7--7-7--7-7--5--5-5--5-5-5-0-0-0-5-0-0-5-0---
-0--0-0--0-0--7--7-7--7-7--5--5-5--5-5-5-0-0-0-5-0-0-4-0---


"Up high I'm..."
 D            A            G           D
                                                     PM-|
-----------------------------------------------------------
---------------------------------------8-7-7-7-8-7-7-------
-7--7-7--7-7--9--9-9--9-9--7--7-7--7-7-7-7-7-7-7-7-7-------
-0--0-0--0-0--7--7-7--7-7--5--5-5--5-5-0-0-0-0-0-0-0-0-0-0-
-0--0-0--0-0--7--7-7--7-7--5--5-5--5-5-0-0-0-0-0-0-0-0-0-0-
-0--0-0--0-0--7--7-7--7-7--5--5-5--5-5-0-0-0-0-0-0-0-0-0-0-


 D                               A

-----------------------------------------------------------
-----------------------------------------------------------
-7-7-9-9-9/11-11-9-11-11/12-11-9-9-9-11-11-11^9^7-9-9-11-9-
-0-0-0-0-0----0--0-0--0-----0--0-7-7-7--7--7------7-7-7--7-
-----------------------------------------------------------
-----------------------------------------------------------

 G                 D

-----------------------------------------------------------
-------------------8-7-7-7-5-7-7-7-7-----------------------
-7-7-9-9-7-7-7-7-7-7-7-7-7-7-7-7-7-7-----------------------
-5-5-5-5-5-5-5-5-5-0-0-0-0-0-0-0-0-0-----------------------
-----------------------------------------------------------
-----------------------------------------------------------


"Up high I'm..."
 D                               A

-----------------------------------------------------------
-----------------------------------------------------------
-7-7-9-9-9/11-11-9-11-11/12-11-9-9-9-11-11-11^9^7-9-9-11-9-
-0-0-0-0-0----0--0-0--0-----0--0-7-7-7--7--7------7-7-7--7-
-----------------------------------------------------------
-----------------------------------------------------------

 G                 D
                   PM- - - - - - - -|
-----------------------------------------------------------
-----------------------------------------------------------
-7-7-9-9-7-7-7-7-7-----------------------------------------
-5-5-5-5-5-5-5-5-5-----------------------------------------
-------------------5-0-0-0-5-0-0-5-0-----------------------
-------------------5-0-0-0-5-0-0-4-0-----------------------

And that's all I've got to say about this song. Have fun!

 Tab key:

  x  = left hand mute
  ^  = legato (hammer on/pull off)
 (2) = optional note
 2/4 = glissando (slide) up

 Hold- - |  PM- - -|     1/4           ~~~
 -----2---- ---------- ---------- ---------- ----------
 ---3---3-- -----3---- ---_ _---- ---------- *--------*
 -2-------- -4-5------ --/---)--- ----2----- *--------*
 ---------- ---------- -2----2--- ---------- ----------
 let notes  right hand bend slight, vibrato    repeat
   ring     palm mute   hold and
                        release
Comments