Creed - Higher Chords & Tabs

 

Higher Chords & Tabs

Creed Chords & Tabs

Version: 1 Type: Tab 1 rating
1 star 2 stars 3 stars 4 stars 5 stars
comments

Higher Tab

Key:
/ - slide up
\ - slide down
x - muted chord
)>
)> - two verses combine in to one
^ - bend up a half step
R - release

            (rhy. fig. 1)
-------------------------------------------------------------------------------------
-------------------------------------------------------------------------------------
------------7----7--9------9--9/11-----11--9--11-11/12---9--9----9----9--11----11--11
----0--0----0----0--0------0--0--0------0--0---0--0--0---0--0----7----7---7-----7---7
----0--0----0----0--0------0--0--0------0--0---0--0--0---0--0----7----7---7-----7---7
----0--0----0----0--0------0--0--0------0--0---0--0--0---0--0----7----7---7-----7---7

-------------------------------------------------------------------------------------
-------------------------------------------------------------------------------------
--9/7--9----9--11----9---7--------7-----7---9-------9---7-----7---7-----7---7-----0--
-------7----7---7----7---0--------5-----5---5-------5---5-----5---5-----5---5-----0--
-------7----7---7----7---0--------5-----5---5-------5---5-----5---5-----5---5-----0--
-------7----7---7----7---0--------5-----5---5-------5---5-----5---5-----5---5-----0--
                                                        (end rhy. fig. 1)(rhy. fig 2)
-------------------------------------------------------------------------------------
-------------------------------------------------------------------------------------
-0----12--11----11------11--9--11-----11---9----7-------7----7------7-----7---9-----9
-0-----0---0-----0-------0--0---0------0---0----0-------0----0------0-----0---0-----0
-0-----0---0-----0-------0--0---0------0---0----0-------0----0------0-----0---0-----0
-0-----0---0-----0-------0--0---0------0---0----0-------0----0------0-----0---0-----0

-------------------------------------------------------------------------------------
-------------------------------------------------------------------------------------
---9/11------11---9---11-11/12-----9--9-----9-----9---11-----11--11--9--7--9-----9---
---0----------0---0----0--0--0-----0--0-----7-----7----7------7---7--------7-----7---
---0----------0---0----0--0--0-----0--0-----7-----7----7------7---7--------7-----7---
---0----------0---0----0--0--0-----0--0-----7-----7----7------7---7--------7-----7---

-------------------------------------------------------------------------------------
-------------------------------------------------------------------------------------
-11-----9-----7---------7-----7---9-------9---7-----7----7-------7---7-----0----0----
-7------7-----0---------5-----5---5-------5---5-----5----5-------5---5-----0----0----
-7------7-----0---------5-----5---5-------5---5-----5----5-------5---5-----0----0----
-7------7-----0---------5-----5---5-------5---5-----5----5-------5---5-----0----0----
                                               (end rhy. fig. 2)(rhy. fig 3)
----------------------------------------------------------------------5-------------0
----------------------------------------------------------------------3-------------3
--12--11------11--------11--9--11-------11-------9---7----------------2-------------2
---0---0-------0---------0--0---0--------0-------0---0----------------0-------------0
---0---0-------0---------0--0---0--------0-------0---0----------------0-------------0
---0---0-------0---------0--0---0--------0-------0---0----------------0-------------0
                                                        
---0----x----x------------------------------0--------------0-----0---0---0---0-------
---3----x----x------------------------------0--------------0-----0---0---0---0-------
---2----x----x---------------0--------------7--------------7-----7---7---7---7-------
---0----x----x-----------0---0--------------7--------------7-----7---7---7---7-------
---0----x----x---4-/-5---0-------4-/-5------5--------------5-----5---5---5---5-------
---0----x----x---0---------------4-/-5------5--------------5-----5---5---5---5-------
   
--0---0---------5-----------0--------0----x----x-------------------------------------
--0---0---------3-----------3--------3----x----x-------------------------------------
--7---7---------2-----------2--------2----x----x----------------------0-----------7--
--7---7---------0-----------0--------0----x----x----------------0-----0-----------7--
--5---5---------0-----------0--------0----x----x-----4-/-5------0---------4-/-5---5--
--5---5---------0-----------0--------0----x----x-----0--------------------4-/-5---5--
                                          (end rhy. fig. 3)
--0--------0----0----0-----0----------0----0-----------------------------------------
--0--------0----0----0-----0----------0----0-----------------------------------------
--7--------7----7----7-----7----------7----7------guitar 1 w/ rhy. fig 3, 2 times----
--7--------7----7----7-----7----------7----7-----------------------------------------
--5--------5----5----5-----5----------5----5-----------------------------------------
--5--------5----5----5-----5----------5----5-----------------------------------------
                                                 (rhy. fig. 4)
-------------------------------------------------------------------------------------
---------------------------------------------------------------------8---8---8---8---
----7---7---7---7---7---7---7---7---7---7---7---7---7---7---7---7----7---7---7---7---
----4---4---4---4---4---4---4---4---4---4---4---4---4---4---4---4----5---5---5---5---
----4---4---4---4---4---4---4---4---4---4---4---4---4---4---4---4----5---5---5---5---
----4---4---4---4---4---4---4---4---4---4---4---4---4---4---4---4----5---5---5---5---

-------------------------------------------------------------------------------------
8---8---8---8---8---8---8---8---8---8---8---8----------------------------------------
7---7---7---7---7---7---7---7---7---7---7---7---7---7---7---7---7---7---7---7---7---7
5---5---5---5---5---5---5---5---5---5---5---5---4---4---4---4---4---4---4---4---4---4
5---5---5---5---5---5---5---5---5---5---5---5---4---4---4---4---4---4---4---4---4---4
5---5---5---5---5---5---5---5---5---5---5---5---4---4---4---4---4---4---4---4---4---4
                                                                  (end rhy. fig. 4)
-------------------------------------------------------------------------------------
---------------------------8---8---8---8---8---8---8-/-20--20-----20--20--20--20\----
---7---7---7---7---7---7---7---7---7---7---7---7---7-/-19--19-----19--19--19--19\----
---4---4---4---4---4---4---5---5---5---5---5---5---5-/-17--17-----17--17--17--17\----
---4---4---4---4---4---4---5---5---5---5---5---5---5-/-17--17-----17--17--17--17\----
---4---4---4---4---4---4---5---5---5---5---5---5---5-/-17--17-----17--17--17--17\----
[ Tab from: http://www.guitartabs.cc/tabs/c/creed/higher_tab.html ]
-------------------------------------------------------------------------------------
-------------------------------------------------------------------------------------
---------------------------------------------------7-------7-------------------------
-------7-------7--7---7-------7--7--7--7-----0-----5-------x-------0-------0--0--0---
-------5-------5--5---4-------4--4--4--5--4--0-----5-------5-------0-------0--0--0---
---------------------------------------------------5-------4-------0-------0--0--0---
          
-------------------------------------------------------------------------------------
-------------------------------------------------------------------------------------
6--7--9--7--6--7-------------------------------------------7-----------7-------------
----------------------0--0----7-------7--7--7--7-----0-----5-----------x-----------0-
----------------------0--0----4-------4--4--4--5--4--0-----5-----------5-----------0-
----------------------0--0---------------------------------5-----------4-----------0-
                
-------------------------------------------------------------------------------------
-------------------------------------------------------------------------------------
-------------------------------------------------------------------------------------
----------0----0----0----4-^--R--0----7----------7----7------7-----------7----7----7-
----------0----0----0-----------------5----------5----5------4-----------4----4----4-
----------0----0----0----------------------------------------------------------------

-------------------------------------------------------------------------------------
-------------------------------------------------------------------------------------
-------------------7----------7------------------------------------6----7----9----7--
---7---------0-----5----------x----------0----------0----0----0----------------------
---5----4----0-----5----------5----------0----------0----0----0----------------------
-------------------5----------4----------0----------0----0----0----------------------
        
-------------------------------------------------------------------------------------
-------------------------------------------------------------------------------------
---6----7---------------------------------------------------------------------4------
-------------------0----0------7----------7----7----7----7---------0----------5------
-------------------0----0------4----------4----4----4----5----4----0----------5------
-------------------0----0-----------------------------------------------------5------
            
-------------------------------------------------------------------------------------
--------------------------------------First time through go to the second------------ 
----7----------7----------------------verse but the second time through--------------
----x----------x----0-----------------continue on.-----------------------------------
----5----------5----0----------------------------------------------------------------
----4----------4----0----------------------------------------------------------------

-------------------------------------------------------------------------------------
-------------------------------------------------------------------------------------
-------------------------------------------------------------------------------------
-0----0----0----0----------0----0----------------------------------------------------
-0----0----0----0----------0----0-----guitar 1 w/ rhy. fig 4-------------------------
-0----0----0----0----------0----0----------------------------------------------------

-------------------------------------------------------------------------------------
-3----------3-------3-------3----3----3-------10----------10------10--10----10-------
-2----------2-------2-------2----2----2--------9-----------9-------9---9-----9-------
-0----------0-------0-------0----0----0--------7-----------7-------7---7-----7-------
-0----------0-------0-------0----0----0--------7-----------7-------7---7-----7-------
-0----------0-------0-------0----0----0--------0-----------0-------0---0-----0----0-0
  
-----8----------8-------8-------8--8----8----8---------------------------------------
-----7----------7-------7-------7--7----7----7---------------------------------------
-----5----------5-------5-------5--5----5----5--0----0----0--5--0----0---0--5--0--0--
-----5----------5-------5-------5--5----5----5--0----0----0--5--0----0---0--5--0--0--
-----5----------5-------5-------5--5----5----5--0----0----0--5--0----0---0--5--0--0--

-------------------------------------------------------------------------------------
----3-------3-------3------3----3----3----10-------10-------10-----10--10----10------
----2-------2-------2------2----2----2-----9--------9--------9------9---9-----9------
----0-------0-------0------0----0----0-----7--------7--------7------7---7-----7------
----0-------0-------0------0----0----0-----7--------7--------7------7---7-----7------
----0-------0-------0------0----0----0-----7--------7--------7------7---7-----7--0--0
    
-------------------------------------------------------------------------------------
---------8----------8----------8--------8---8-----8-----8----------------------------
---------7----------7----------7--------7---7-----7-----7--------12-11-----------12--
---------5----------5----------5--------5---5-----5-----5----0----x--x------0--0--x--
---------5----------5----------5--------5---5-----5-----5----0---10--9------0--0-10--
---------5----------5----------5--------5---5-----5-----5----0--------------0--0-----
-------------------------------------------------------------------------------------
-------------------------------------------------------------------------------------
11---11\7----------------------------------------------------------------------------
-x------x------------(guitar 1  w/ rhy. fig. 1, 1 3/4 times)-------------------------
-9----9\5----------------------------------------------------------------------------
-------------------------------------------------------------------------------------

    (final verse)
-------------------------------------------------------------------------------------
-------------------------------------------------------------------------------------
----------------------------------------------7-------7------------------------------
--7-------7--7----7-------7--7--7--7-----0----5-------x-------0-------0--0--0--------
--5-------5--5----4-------4--4--4--5--4--0----5-------5-------0-------0--0--0--------
----------------------------------------------5-------4-------0-------0--0--0--------
    
---------------------------------------------------------------------------------
---------------------------------------------------------------------------------
6-7-9-7-6-7-6-7--------------------------------------7-------7-------------------
-----------------0--0----7-------7--7--7--7-----0----5-------x-------0---0--0--0-
-----------------0--0----4-------4--4--4--5--4--0----5-------5-------0---0--0--0-
-----------------0--0--------------------------------5-------5-------0---0--0--0-
          
-------------------------------------------------------------------------------------
-------------------------------------------------------------------------------------
6--7--9--7--6--7---------------------------------------------7-------7---------------
-----------------------0--0---7-------7--7--7--7-----0-------5-------x-------0-------
-----------------------0--0---4-------4--4--4--5--4--0-------5-------5-------0-------
-----------------------0--0----------------------------------5-------5-------0-------
                 
-------------------------------------------------------------------------------------
-------------------------------------------------------------------------------------
---------6--7--9--7--6--7-------------------------------------------7-------7--------
0--0--0-------------------------0--0----7-------7--7--7--7-----0----5-------x--------
0--0--0-------------------------0--0----4-------4--4--4--5--4--0----5-------5--------
0--0--0-------------------------0--0--------------------------------5-------5--------
                        
-------------------------------------------------------------------------------------
-------------------------------------------------------------------------------------
-------------------------------------------------------------------------------------
0------------------------------------------------------------------------------------
0------------------------------------------------------------------------------------
0------------------------------------------------------------------------------------
streets?_________  (repeat final verse once with a lighter voice and lighter 

strumming then fade out)
Comments