Creed - Higher Correct Chords & Tabs

 

Creed Chords & Tabs

Version: 1 Type: Tab 7 ratings
1 star 2 stars 3 stars 4 stars 5 stars
comments

Higher Correct Tab

Song: Higher
Artist: Creed                                              Key
Album: Human Clay
Tuning: DADGBE                                             Hammer On: h
Tabbed By: Ryan Vernon                                     Pull Off: p
Email: ohio_guitar_player15@yahoo.com                      Slide Up: /
                                                           Slide Down: \
This is the best song ever! I know this isn’t              Let Note Ring: ~
100% correct so email if you have any questions            Bend: b                                                    
or comments.                                               Rebend: r
________________________________________________________________________________                                    

Intro: Clean

|------------------------------------------------------------------------------|
|------------------------------------------------------------------------------|
|---77-7--9-9-9/11--11-9-11-12-11-9-9--11-11-11p9p7h9--11-9-77-99-7-77-7-00----|
|---00-0-—0-0-0--0---0-0--0--0--0-7-7---7--7--7-7-7-7---7-7-55-55-5-55-5-00----|
|---00-0--0-0-0--0---0-0--0--0--0-7-7---7—-7—-7-7-7-7---7-7-55-55-5-55-5-00----|
|---00-0--0-0-0--0---0-0--0--0--0-0-0---7—-7—-7-7-7-7---7-7-55-55-5-55-5-00----|
           
|------------------------------------------------------------------------------|
|------------------------------------------------------------------------------|
|---121111-11--91111-11-7—-9-9-9/11--11-9-11-12-11-9-9--11-11-11p9p7h9--11-9---|
|----0-0-0-—0—-0-0-0—-0-0—-0-0-0-—0---0-0—-0—-0-—0-7-7---7—-7—-7-7-7-7---7-7---|
|----0-0-0--0--0-0-0--0-0--0-0-0--0---0-0--0--0--0-0-0---7--7--7-7-7-7---7-7---|
|----0-0-0--0--0-0-0--0-0--0-0-0--0---0-0--0--0--0-0-0---7--7--7-7-7-7---7-7---|
                        ^ Distortion Kicks In
|------------------------------------------------------------------------------|
|------------------------------------------------------------------------------|
|---77-99-7-77-7-00-121111-11-121111-11-7~-------------------------------------|
|---55-55-5-55-5-00--0-0-0--0--0-0-0--0-0~-------------------------------------|
|---55-55-5-55-5-00--0-0-0--0--0-0-0--0-0~-------------------------------------|
|---55-55-5-55-5-00--0-0-0--0--0-0-0--0-0~-------------------------------------|

Verse: Clean

|------------------------------------------------------------------------------|
|------3-3--33-3----0-0--00-0----3-3--33-3--—-0-0--00-0--—---------------------|
|---2-—2-2--22-2-0--0-0--00-0-2—-2-2--22-2-0--0-0--00-0------------------------|
|---0--0-0--00-0-0--0-0--00-0-0--0-0--00-0-0--0-0--00-0------------------------|
|---0------------0------------0------------0-----------------------------------|
|------------------------------------------------------------------------------|

|------------------------------------------------------------------------------|
|------3-3--33-3----0-0--00-0----3-3--33-3----0-0--00-0------------------------|
|---2--2-2--22-2-0--0-0--00-0-2--2-2--22-2-0--0-0--00-0------------------------|
|---0--0-0--00-0-0--0-0--00-0-0--0-0--00-0-0—-0-0--00-0------------------------|
|---0------------0------------0------------0-----------------------------------|
|------------------------------------------------------------------------------|

Pre-Chorus: Distortion
[ Tab from: http://www.guitartabs.cc/tabs/c/creed/higher_correct_tab.html ]
|------------------------------------------------------------------------------|
|--------------------------------------------------------------------////20\---|
|--------------------------------------------------------------------////19\---|
|---4444444444444444555555555555555544444444444444445555555555555555-----------|
|---4444444444444444555555555555555544444444444444445555555555555555-----------|
|---4444444444444444555555555555555544444444444444445555555555555555-----------|

Chorus: Distortion

|------------------------------------------------------------------------------|
|------------------------------------------------------------------------------|
|-------------------------6h7-9p7p6h7------------------------------------------|
|---7-777-7-77-7-5-4-0~~~-------------7-777-7-77-7-5-4-0~~~-4brp0--------------|
|---5-554-5-55-5-5-4-0~~~-------------5-554-5-55-5-5-4-0~~~--------------------|
|---0-000-0-00-0-5-4-0~~~-------------0-000-0-00-0-5-4-0~~~--------------------|

|------------------------------------------------------------------------------|
|------------------------------------------------------------------------------|
|-------------------------6h7-9p7p6h7------------------------------------------|
|---7-777-7-77-7-5-4-0~~~-------------7-777-7-77-7-5-4-0~~~--------------------|
|---5-554-5-55-5-5-4-0~~~-------------5-554-5-55-5-5-4-0~~~--------------------|
|---0-000-0-00-0-5-4-0~~~-------------0-000-0-00-0-5-4-0~~~--------------------|

Repeat Verse

Repeat Pre-Chorus

Repeat Chorus

Repeat Pre-Chorus

Repeat Intro, All Distortion 

Repeat Intro, All Clean 2x

Chorus # 3/Outro: Distortion

|------------------------------------------------------------------------------|
|------------------------------------------------------------------------------|
|-------------------------6h7-9p7p6h7------------------------------------------|
|---7-777-7-77-7-5-4-0~~~-------------7-777-7-77-7-5-4-0~~~-4brp0--------------|
|---5-554-5-55-5-5-4-0~~~-------------5-554-5-55-5-5-4-0~~~--------------------|
|---0-000-0-00-0-5-4-0~~~-------------0-000-0-00-0-5-4-0~~~--------------------|

|------------------------------------------------------------------------------|
|------------------------------------------------------------------------------|
|-------------------------6h7-9p7p6h7------------------------------------------|
|---7-777-7-77-7-5-4-0~~~-------------7-777-7-77-7-5-4-0~~~-4brp0--------------|
|---5-554-5-55-5-5-4-0~~~-------------5-554-5-55-5-5-4-0~~~--------------------|
|---0-000-0-00-0-5-4-0~~~-------------0-000-0-00-0-5-4-0~~~--------------------|

|------------------------------------------------------------------------------|
|------------------------------------------------------------------------------|
|-------------------------6h7-9p7p6h7-----------------------6h7-9p7p6h7--------|
|---7-777-7-77-7-5-4-0~~~-------------7-777-7-77-7-5-4-0~~~--------------------|
|---5-554-5-55-5-5-4-0~~~-------------5-554-5-55-5-5-4-0~~~--------------------|
|---0-000-0-00-0-5-4-0~~~-------------0-000-0-00-0-5-4-0~~~--------------------|

|------------------------------------------------------------------------------|
|------------------------------------------------------------------------------|
|-------------------------6h7-9p7p6h7------------------------------------------|
|---7-777-7-77-7-5-4-0~~~-------------7-777-7-77-7-5-4-0~~~--------------------|
|---5-554-5-55-5-5-4-0~~~-------------5-554-5-55-5-5-4-0~~~--------------------|
|---0-000-0-00-0-5-4-0~~~-------------0-000-0-00-0-5-4-0~~~--------------------|


Song Order

Intro: Clean/Distortion
Verse: Clean
Pre-Chorus: Distortion
Chorus: Distortion
Verse: Clean
Pre-Chorus: Distortion
Chorus: Distortion
Pre-Chorus: Distortion
Intro: Distortion
Intro: Clean
Intro: Clean
Chorus/Outro: Distortion
Comments