Creed - Higher Chords & Tabs

 

Higher Chords & Tabs

Creed Chords & Tabs

Version: 1 Type: Bass Tab 1 rating
1 star 2 stars 3 stars 4 stars 5 stars
comments

Higher Bass Tab

Higher, a truly kick ass song!
tuning is D,A,D,G from top to bottom.
Intro :  in parentheses is the 2nd time.
-----------------------------------------
-----------------------------------------
-----------------------------------------
0-7-5-(5-0-0-0-5-0-0-0-5-5-0)---0--------
Verse: 5 times ( listen to guitar changing chords and you'll get it ) 
------------------------------------------------
------------------------------------------------
------------------------------------------------
0-------5---------------------------------------
Pre chorus:
----------------------------------------------------12-12-12-12-12-12
---------------------------------------------------------------------
---------------------------------------------------------------------
44444444444444445555555555555555444444444444444455-------------------

Chorus:in parentheses is the second time.
--------------------------------------------------
-------------------------------------------------
-----5---5---4--4--------4h5 7p5p4h5----(-4b---)--               
------------------5--4--0---------------(-----5)---

End:
------------------
------------------
------------------
----0000--------
 Enjoy! :)
[ Tab from: http://www.guitartabs.cc/tabs/c/creed/higher_btab.html ]
Comments