Creed - Hide Chords & Tabs

 

Hide Chords & Tabs

Creed Chords & Tabs

Version: 9 Type: Tab 0 ratings
1 star 2 stars 3 stars 4 stars 5 stars
comments

Hide Tab

   
open b flat tuning
(low to high) F-Bb-F-Bb-D-F
harmonic = *
___________________________
intro
moderately slow = 75
INTRO
--------------------------------------------------------------*12---------
--------------------------------------------------------------------*12---
--------------------------------------------------------------------------
-----9b-----9--9b-----10~~~--------9b-----9--9b-----10~~~-----------------
--0------0---------0------------0------0---------0------------------------
--------------------------------------------------------------------------
VERSE
-------------------------------------0-----------
----------------------------------------0--------
-----------0----------------0----------------0---
--------4-------0--------4-----4-----------------
-----4----------------2--------------------------
--2----------------0--------------0--------------
___________________________________________
--0-----0----0----0--0--------------
--0-----0----0----0--0--------------
--0-----0----0----0--0----------0---
--7-----7----7/9--9--9-----7--------
--7-----7----0----0--0-----0--------
--5-----5---------------------0-----
___________________________________________
------------------------------------0-------------
---------------------------------------0------0---
-----------0----------------0-----------------0---
--------4-------4--------4--------------------7---
-----4----------------2----------2--------/7------
--2----------------0-------------0--------/5------
____________________________________________
--0-----0----0----0--------------------
--0-----0----0----0-----------0--------
--0-----0----0----0-----------0-----0--
--7-----7----7/9--9-----------7--------
--7-----7----0-------0-----0-----4-----
--5-----5------------------------0-----
_____________________________________________
-------------------------------------0---------
----------------------------------------0------
-----------0----------------0--------------0---
--------4-------4--------4-----4---------------
-----4----------------2-----------2------------
--2----------------0---------------------------
______________________________________________
--------0--0---0--0--0--0--0----0--0--0--0---
--0-----0--0---0--0--0--0--0----0--0--0--0---
--0-----0--0---0--0--0--0--0----0--0--0--0---
--4-----4--4---4--4--4--4--4----5--5--5------
--5-----5--5---5--5--5--5--5----5--5--5------
---------------------------------------------
CHORUS
-----------0------0--------------------------------------0---------0-----------
------0/1--1------------------------------------0--0--------------------0------
-----------0---------2/4-------------0----------0--0------------0----------0---
-----------0--------------5--4/5--4--0-------------0--------0------------------
--0--------0-------------------------------------------------------------------
------------------------------------------4------------------------------------
________________________________________________
-------------------------------------0-----------
----------------------------------------0--------
-----------0----------------0----------------0---
--------4-------0--------4-----4-----------------
-----4----------------2--------------------------
--2----------------0--------------0--------------
_________________________________________________
--0-----0--0---0--0--0--0--0----0--0--0--0---
--0-----0--0---0--0--0--0--0----0--0--0--0---
--0-----0--0---0--0--0--0--0----0--0--0--0---
--12----12-12--12-12-12-12-12---12-12-12-----
--12----12-12--12-12-12-12-12---12-12-12-----
--10----10-10--10-10-10-10-19---9--10-10-----
"THERE IS NO REASON TO HIDE....."
------------------------------------------
---------------------------------0--------
--------------------------------------0---
--4-----4--------4-----2---2--2-----------
--4-----4-----2--2-----4---4--4-----------
--2-----2-----0--0-----0---0--0-----------
YEAH..............
--0-----0-----0--0--0--0---0--0--0--0---
--0-----0-----0--0--0--0---0--0--0--0---
--0-----0-----0--0--0--0---0--0--0--0---
--12----12----12-12-12-12--12-12-12-----
--12----12----12-12-12-12--12-12-12-----
--10----10----10-10-10-10--10-10-10-----
"NO REASON TO HIDE....."
--10--10-----10--10-----10--10--10--10----10--10--10--10---
--12--12-----12--12-----12--12--12--12----12--12--12--12---
--12--12-----12--12-----12--12--12--12----12--12--12--12---
-----------------------------------------------------------
-----------------------------------------------------------
-----------------------------------------------------------
__________________________________________
--------------------------------------
--------------------------------------
--------------------------------------
------9b------9---9b-----10---10-10---
--0--------0----------0-------0--0----
--------------------------------------
___________________________________________
--12---12--12--12---12--12--12--12--12----12--12--12--12---
--12---12--12--12---12--12--12--12--12----12--12--12--12---
--12---12--12--12---12--12--12--12--12----12--12--12--12---
--10---10--10--10---10--10--10--10--10----10--10--10--10---
--0----0---0---0----0---0---0---0---0-----0---0---0---0----
-----------------------------------------------------------
SLOWLY FADES
-12---------12---------12---------12---------12---------12---------12--------12
-------12----------12--------12----------12--------12----------12--------12----
-------------------------------------------------------------------------------
-------------------------------------------------------------------------------
-------------------------------------------------------------------------------
-------------------------------------------------------------------------------
[ Tab from: http://www.guitartabs.cc/tabs/c/creed/hide_tab_ver_9.html ]
Comments