Creed - Hide Chords & Tabs

 

Hide Chords & Tabs

Creed Chords & Tabs

Version: 3 Type: Tab 0 ratings
1 star 2 stars 3 stars 4 stars 5 stars
comments

Hide Tab

 

 
 #----------------------------------PLEASE NOTE--------------------------------# 
#This file is the author's own work and represents their interpretation of the# 
#song. You may only use this file for private study, scholarship, or research.# 
#-----------------------------------------------------------------------------# 
#-----------------------------------------------------------------------------# 

Author/Artist: Creed 
Title: Hide 
Tuning: Drop D 
Album: Weathered 
Transcribed by: Matty N.
Email: Matt2332@excite.com


Intro (light distortion) 
Play this 2x - Then this - 
----------------------------------|---13---10---| 
----3h4--3----0--3h4p3----0---4~--|-------------| 
----------------------------------|-------------| 
----------------------------------|-------------| 
-1--------------------------------|-------------| 
----------------------------------|-------------| 

Then it plays that again . . . 

Clean riff - 

----------------------|--------------------------|----------------------------| 
----------------------|--------------6-----------|--3--3-3-3-3-3--3/4--4-4-4--| 
----------------------|-----3-----------5--------|--3--3-3-3-3-3--3----3-3-3--| 
----------8-----5-----|--------3-----------3-----|--3--3-3-3-3-3--------------| 
----5--------5-----5--|-----------3-----------3--|--1--1-1-1-1-1--1----1-1-1--| 
-5-----5--------------|--3-----------------------|----------------------------| 


Verse - 
[ Tab from: http://www.guitartabs.cc/tabs/c/creed/hide_tab_ver_3.html ]
----------------------|--------------------------|----------------------------| 
----------------------|--------------6-----------|--3--3-3-3-3-3--3/4--4-4-4--| 
----------------------|-----3-----------5--------|--3--3-3-3-3-3--3----3-3-3--| 
----------8-----5-----|--------3-----------3-----|--3--3-3-3-3-3--------------| 
----5--------5-----5--|-----------3-----------3--|--1--1-1-1-1-1--1----1-1-1--| 
-5-----5--------------|--3-----------------------|----------------------------| 
********************** *********** 

Chorus - 
Lets leave oh lets get away . . . 
----------------------------| 
----------------------------| 
-3--3-3-3-3-3-3-3-3-3--3-3--| Play with light distortion 
-3--3-3-3-3-3-3-3-3-3--3-3--| 
-1--1-1-1-1-1-1-1-1-1--1-1--| 
----------------------------| 

Get lost in time . . . 
-1--1-1-1-1-1-1-1-1-1--1-1--| 
-1--1-1-1-1-1-1-1-1-1--1-1--| 
-3-3-3-3-3-3-3-3-3-3--3-3--| 
-3--3-3-3-3-3-3-3-3-3--3-3--| 
-0--0-0-0-0-0-0-0-0-0--0-0--| 

----------------------------| 

Where theres no reason to hide . . . . . . 
----------------------|--------------------------|----------------------------| 
----------------------|--------------6-----------|--3--3-3-3-3-3--3/4--4-4-4--| 
----------------------|-----3-----------5--------|--3--3-3-3-3-3--3----3-3-3--| 
----------8-----5-----|--------3-----------3-----|--3--3-3-3-3-3--------------| 
----5--------5-----5--|-----------3-----------3--|--1--1-1-1-1-1--1----1-1-1--| 
-5-----5--------------|--3-----------------------|----------------------------| 

Then it goes to the verse 

Chorus 2 
Lets leave . . . Get lost . . . Where theres no reason to . . . 
------------------------------|---------------------------------| 
-------------------------1----|---------------------------------| 
-3-----------------------3----|--7-------------5-------------3--| Heavier 
-3-----------------------3----|--5-------------3-------------1--| Distortion 
-1-----------------------0----|--5-------------3-------------1--| 
------------------------------|--5-------------3-------------1--| 

Then go into the intro. 

Then go into the last of the chorus. 


Tab Key: 
h = hammer on 
p = pull off 
* = palm mute 
~ = let note ring 
/ = slide up 

 
Comments