Creed - Hide Chords & Tabs

 

Hide Chords & Tabs

Creed Chords & Tabs

Version: 13 Type: Tab 0 ratings
1 star 2 stars 3 stars 4 stars 5 stars
comments

Hide Tab

Author/Artist: Creed
Title: Hide
Album: Weathered
Tuning(high to low):EBFDAD*

*some people like to play it in standard tuning but it's easier like this

Key:
    b=full bend(to the note next to it)
    ^=1/2 step bend
    p.m.=palm mute
    h=Hammer on
    p=Pull off

**Capo on 1st fret**

Intro (w/distortion)

E----------------------------------------------------------------12-------|
B-------------------------------------------------------------------14----|
F---8b9b8---8-8b9b8---9--------------8b9b8---8-8b9b8---9---------------14-|
D------------------------------------------------------7------------------|
A-0-------0---------0--------------0-------0---------0--------------------|
D-------------------------------------------------------------------------|
[ Tab from: http://www.guitartabs.cc/tabs/c/creed/hide_tab_ver_13.html ]
E-------------------9-9-9-9-9-9-9-------------------9-9-9-9-9-9-9-|
B-------------------x-x-x-x-x-x-x-------------------x-x-x-x-x-x-x-|
F---8b9b8---8b9b8-9-9-9-9-9-9-9-9---8b9b8---8b9b8-9-9-9-9-9-9-9-9-|
D-----------------7-7-7-7-7-7-7-7-----------------7-7-7-7-7-7-7-7-|
A-0-------0-----------------------0-------0-----------------------|
D-----------------------------------------------------------------|

Verse (clean)

E----------------------0-------0---0-0-0-0-0---0-0-0-|
B------------------------2-----0h2-2-2-2-2-2p0-0-0-0-|
F-------4---------4--------4---4---4-4-4-4-4---4-4-4-|
D-----6---6-----2---2--------2-2---2-2-2-2-2---2-2-2-|
A---4---------2----------------0---0-0-0-0-0---0-0-0-|
D-4---------2----------------------------------------|
P.M.|................................................|


Chorus

E-0-0-0-0-------------------------------0-------0---0-0-0-0-0---------|-0-|*
B-2-2-2-2-0-0-0-0-0-----------------------2-----0h2-2-2-2-2-2---------|-0-|
F-4-4-4-4-4-4-4-4-4-------4---------4-------4---4---4-4-4-4-4---------|-4-|
D-2-2-2-2-2-2-2-2-2-----6---6-----2---2-------2-2---2-2-2-2-2---------|-2-|
A-0-0-0-0-0-0-0-0-0---4---------2---------------0---0-0-0-0-0---------|-0-|
D---------6-6-6-6-6-4---------2---------------------------------------|---|

*end on this the last time

Intro x1
Verse x5
Chorus x2 (clean)
Verse x5
Chorus X2 (w/distortion)
Intro x1
Verse x1
Chorus x3 (w/distortion)
Verse x1 *a little bit different
Comments