Creed - Hide Chords & Tabs

 

Hide Chords & Tabs

Creed Chords & Tabs

Version: 1 Type: Tab 1 rating
1 star 2 stars 3 stars 4 stars 5 stars
comments

Hide Tab

#----------------------------------PLEASE NOTE--------------------------------#
#This file is the author's own work and represents their interpretation of the#
#song. You may only use this file for private study, scholarship, or research.#
#-----------------------------------------------------------------------------#
#-- File created with Instab - http://www.pconline.com/~smcarey/instab.html --#
#-----------------------------------------------------------------------------#

Author/Artist: Creed
Title: Hide
Album: Weathered
Transcribed by: Andrew Shantz and Steve Rose
Email: ashantz@sympatico.ca

**Capo on 1st fret**

Intro (w/distortion)
[ Tab from: http://www.guitartabs.cc/tabs/c/creed/hide_tab.html ]
E----------------------------------------------------------------12----|
B-------------------------------------------------------------------14-|
G---6b7b6---6-6b7b6---7--------------6b7b6---6-6b7b6---7---------------|
D------------------------------------------------------7---------------|
A-0-------0---------0--------------0-------0---------0-----------------|
E----------------------------------------------------------------------|
                                                                              
-------------------9-9-9-9-9-9-9-------------------9-9-9-9-9-9-9-|
-------------------x-x-x-x-x-x-x-------------------x-x-x-x-x-x-x-|
---6b7b6---6b7b6-7-7-7-7-7-7-7-7---6b7b6---6b7b6-7-7-7-7-7-7-7-7-|
-----------------7-7-7-7-7-7-7-7-----------------7-7-7-7-7-7-7-7-|
-0-------0-----------------------0-------0-----------------------|
-----------------------------------------------------------------|
                                                                              
Verse (clean)

----------------------0-------0---0-0-0-0-0---0-0-0-|
------------------------2-----0h2-2-2-2-2-2p0-0-0-0-|
-------2---------2--------2---2---2-2-2-2-2---2-2-2-|
-----6---6-----2---2--------2-2---2-2-2-2-2---2-2-2-|
---4---------2----------------0---0-0-0-0-0---0-0-0-|
-2---------0----------------------------------------|
                                                                              

*palm mute this part
when the lyrics come in*

Chorus

-0-0-0-0-------------------------------0-------0---0-0-0-0-0---------|-0-|
-2-2-2-2-0-0-0-0-0-----------------------2-----0h2-2-2-2-2-2---------|-0-|
-2-2-2-2-2-2-2-2-2-------2---------2-------2---2---2-2-2-2-2---------|-2-|
-2-2-2-2-2-2-2-2-2-----6---6-----2---2-------2-2---2-2-2-2-2---------|-2-|
-0-0-0-0-0-0-0-0-0---4---------2---------------0---0-0-0-0-0---------|-0-|
---------4-4-4-4-4-2---------0---------------------------------------|---|
                                                                      *end on this
								      the last time        
Intro x1
Verse x5
Chorus x2 (clean)
Verse x5
Chorus X2 (w/distortion)
Intro x1
Verse x1
Chorus x3 (w/distortion)
Verse x1 *a little bit different

You might find it easyer to play the first part of the verse like this:

-----------|
-----------|
-----------|
-----6-7-6-|
---4-------|
-2---------|

Hope you enjoy the tab.  There may be a few corrections, especially in 
the chorus so please let me know.
Comments