Creed - Freedom Fighter Chords & Tabs

 

Freedom Fighter Chords & Tabs

Creed Chords & Tabs

Version: 1 Type: Bass Tab 0 ratings
1 star 2 stars 3 stars 4 stars 5 stars
comments

Freedom Fighter Bass Tab

Creed 
Freedom Fighter

Drop D Tuning 
Email: Sosa101@aol.com
this song is cool once you get the speed down in some parts.
shouldnt take very long to learn.

Intro  (0:01)
G----------------------
D----------------------	X3
A-------0-----0-3-5----
D-0-3-5---0--0------0--

4th time  
G------------------------
D---------5h6h5-3-5-3----  X1
A-------0-------------5--
D-0-3-5------------------

G----------------------
D----------------------	X3
A-------0-----0-3-5----
D-0-3-5---0--0------0--

G-------------------
D-5~-553-----3------  X1
A--------5-5---5-3--
D-------------------

Play Intro again (0:20)

Chorus  (0:38)
G----------------------------------------------------
D----------------------------------------------------  X1
A------3-33-2-22-------------------------------------
D-0-00-----------5-5543-33-/-777-\-2-22-0-6-5-3-5-3--

Play Intro again  (0:47)
Then Play the chorus again (1:05) X1
[ Tab from: http://www.guitartabs.cc/tabs/c/creed/freedom_fighter_btab.html ]
Interlude  (1:14)
G---------------------------
D---------------------------  X3
A---------------------------
D-0-00-0-00-0-00-6-5-3-5-3--

(1:28)
G-------------------------------
D------------------------------- X6
A-------------------------------
D-0-000-0-000-0-00-6-5-3-5-3-0--

(1:55)
G---------------------------------------------
D---------------------------------------------  X3
A---5h6h5-3-5---5h6h5-3-5---5h6h5-3-5---------
D-0-----------0-----------0-----------00-3-5--

Outro  (2:13)
G----------------------------------------------------
D---------------------------------------------------- X2
A------3-33-2-22-------------------------------------
D-0-00-----------5-5543-33-/-777-\-2-22-0-6-5-3-5-3--

(2:31)
G----------------------------------------
D---------------------------------------- X1
A----------------------------------------
D-6-5-3-5-3-0--6-5-3-5-3-0--6-5-3-5-3-0--

It's Fun to play if you can get it enjoy if you got any quiestions e-mail me at 
sosa101@aol.com
Comments