Creed - Dont Stop Dancing Chords & Tabs

 

Dont Stop Dancing Chords & Tabs

Creed Chords & Tabs

Version: 6 Type: Tab 0 ratings
1 star 2 stars 3 stars 4 stars 5 stars
comments

Dont Stop Dancing Tab

Band- Creed
Album- Weathered
Song- Don't Stop Dancing
Tuning- Standard tuning

Mark Tremonti has some killer solo's, but this solo is easy so I decided to tab it.

|-----------------------------------------------------------------|
|-15----------15----------15-15br-15----------15----------15-15br-|
|----14-16-14----14-16-14------------14-16-14----14-16-14---------|
|-----------------------------------------------------------------|
|-----------------------------------------------------------------|
|-----------------------------------------------------------------|
[ Tab from: http://www.guitartabs.cc/tabs/c/creed/dont_stop_dancing_tab_ver_6.html ]
|-----------------------------------------------------|
|-15----------15----------15-15br-------------12------|
|----14-16-14----14-16-14---------16-14-12~-14---14br-|
|-----------------------------------------------------|
|-----------------------------------------------------|
|-----------------------------------------------------|

|---------------------12br-|
|---------------------15br-|
|-12~-11~-11br-------------|
|--------------14-12~------|
|--------------------------|
|--------------------------|

This is a good solo for beginners to practice. You may consider me a beginner because
I'm only 13 years old, but I've been playing guitar since I was 7. It also really stinks
that Creed broke up because they were my favorite band. Alter Bridge is alright, but no
other band will be as good as Creed. MARK TREMONTI ROCKS!
Comments