Creed - Dont Stop Dancing Chords & Tabs

 

Dont Stop Dancing Chords & Tabs

Creed Chords & Tabs

Version: 5 Type: Tab 0 ratings
1 star 2 stars 3 stars 4 stars 5 stars
comments

Dont Stop Dancing Tab

   
Donít Stop Dancing-Creed
Weathered

E A D G B E


Intro/Verse: (acoustic)

Fig. 1

e-3----3-----3--------3--3-----3----3-----3-------3--3----3---
b-3----3-----3--------3--3-----3----3-----3-------3--3----3---
g-0----0-----0--------0--0-----0----0-----0-------0--0----0---
d-0----0-----0--------0--0-----2----2-----0-------0--0----0--- x2
a-2----2-----0--------0--0-----3----3-----2-------2--0----0---
e------------2--------2--2------------------------------------

arpeggiated part

e-----------------------------------------------------0-------
b-------------------------------------------------------8---0-
g---------------------------------------------------0-----0---
d-------------------------------------------------9-----------
a----------------------------------------------10-------------
e-------------------------------------------------------------

gtr. 2

e-----0-0-0-------------0------------------------------0----------
b-----0-0-0--3------------3----0-0---0-0-0--0------------8-0-0----
g-----4-4-4--0--------0----------9---9-9-9--0--------0-----0-0----
d-----5-5-5--4------4-----------10--101010--9------9-------0-0----
a-5----------5----5-------------10--101010-10---10----------------
e-----------------------------------------------------------------

gtr. 1

e-3---3-3-3--3----3-3-3-3-3----3-3---3-3-3--3----3-3-3-3-3---3-3--
b-3---3-3-3--3----3-3-3-3-3----3-3---3-3-3--3----3-3-3-3-3---3-3--
g-0---0-0-0--0----0-0-0-0-0----0-0---0-0-0--0----0-0-0-0-0---0-0--
d-0---0-0-0--0----0-0-0-0-0----0-2---2-2-2--0----0-0-0-0-0---0-0--
a-2---2-2-2--0----0-0-0-0-0------3---3-3-3--2----2-2-2-2-2---2-2--
e-3---3-3-3--2----2-2-2-2-2---------------------------------------

Pre Chorus:

Fig. 2

e-0----0---0---0-0-----0----------0-0-0---0-0-0-0---0-0--------
b-0----0---0h1-1-0-----0------0---3-3-3---3-3-3-3---3-3--------
g-2----2---2---2-2-----2-0-0--0---0-0-0---0-0-0-0---0-0---0-0--
d-2----2---2-----2-----2-0-0--2---2-2-2---2-2-2-2---2-2---0-0--
a-0----0---0-----0-----0-0-0--3---3-3-3---3-3-3-3---3-3---0-0--
e--------------------------------------------------------------

e--------------------------------------------------------------
b---------------------------------0----------------------------
g-0----0---0--0-0--0----0-0-0-0---0----5----5-5-5-5/7-7-7-7----
d-4----4---4--4-4--4----4-4-0-0---2----5----5-5-5-5/x-x-x-x----
a-2----2---2--2-2--2----2-2-0-0---3----3----3-3-3-3/5-5-5-5----
e-0----0---0--0-0--0----0-0----------------------------------3-

Chorus:

e-------------------------------0----0---0---0-0---0-0-0----
b-0----0---0----3--3----3-3-----0----0---0---0-0---0-0-0----
g-0----0---0----2--2----2-2-0---6----6---6---6-6---6-6-6-0--
d-0----0---0--0-0--0----0-0-0---7----7---7---7-7---7-7-7-0--
a-2----2---2--0-0--0----0-0-0---4----4---4---4-4---4-4-4-3--
e-3----3---3------------------------------------------------

e-----------------------------------------------------------
b-3----3---3--3-3--3---3-3-3----0----0---0---3------3-------
g-0----0---0--0-0--0---0-0-0----0----0---0---2------2-------
d-2----2---2--2-2--2---2-2-2-0--0----0---0---0-0----0-------
a-3----3---3--3-3--3---3-3-3-0--2----2---2-0---0----0-0-----
e-------------------------------3----3---3-0----------0-----
[ Tab from: http://www.guitartabs.cc/tabs/c/creed/dont_stop_dancing_tab_ver_5.html ]
e-0----0---0-0-0--0---0-0-0---------------------------------
b-0----0---0-0-0--0---0-0-0-----1---------------------------
g-6----6---6-6-6--6---6-6-6-----0---------------------------
d-7----7---7-7-7--7---7-7-7-----x---------------------------
a-4----4---4-4-4--4---4-4-4-3---3---------------------------
e-----------------------------------------------------------

Interlude:

e------0----------------0---------0----0--0--0-------------0------
b-0----0-----3------------3-0-0---0----0--0--0--8------------8----
g-4----4--0--0--------0-----0-0---9----9--9--9--0--------0-----0--
d-5----5--4--4------4-------0-0--10---10-10-10--9------9---------0
a-5-------5--5----5--------------10---10-10-10-10---10------------
e-----------------------------------------------------------------

Solo build up

Aadd9/C#                     C

e-10/12~~~~~~~-12/14~~~~~~~~-14/15--15b---15b----17br~~~~~--------
b-----------------------------------------------------------------
g-----------------------------------------------------------------
d-----------------------------------------------------------------
a-----------------------------------------------------------------
e-----------------------------------------------------------------

Solo:

e--------------------------------------------
b-15~~~----------15~~~----------15-15b~~~~~--
g-------14-16-14-------14-16-14--------------   x2
d--------------------------------------------
a--------------------------------------------
e--------------------------------------------

e-----------------------------------------------------------------
b-15~~~----------15~~~----------15-15b----------------12----------
g-------14-16-14-------14-16-14--------16p14-12~~~-14----14b~~~~--
d-----------------------------------------------------------------
a-----------------------------------------------------------------
e-----------------------------------------------------------------

e-----------------------------------------12----------------------
b-----------------------------------------15b~~~~~~~~-------------
g-12~~~~~~~-11~~~~~~~-11br----------------------------------------
d----------------------------14------12\--------------------------
a-----------------------------------------------------------------
e-----------------------------------------------------------------

Bridge:

e-----------0---0-0--0-0-0--------------3---3-3---3-3-3----
b-3---3-3---0---0-0--0-0-0-1-1---1-1----3---3-3---3-3-3----
g-2---2-2---6---6-6--6-6-6-0-0---0-0----0---0-0---0-0-0----
d-0---0-0---7---7-7--7-7-7-x-2---2-2----0---0-0---0-0-0-0--
a-0---0-0-0-4---4-4--4-4-4-3-3---3-3p0--2---2-2---2-2-2-0--
e---------------------------------------3---3-3---3-3-3----

Pre Chorus:

e-3---------3--3----3------2----2---3----3-2------2-------
b-3-----3---3--3----3------3----3---3----3-3------3-0-0---
g-0-----0---0--0----0-0-0--2----2---2----2-2------2-0-0---
d-0-----0-------------0-0--0----0-0--------0----0---0-0---
a-2---------------2---0-0---------------------------------
e-3-------------------------------------------------------

e------0--------0------0---0-0------------0---------------
b------0--------0------0---0-0-----------------3----------
g------6---------------6---6---6-5------0--------0--------
d-7----------7-------7-7---7---7------2-------------------
a-4--------------------4---4---4----3---------------------
e---------------------------------------------------------

end with chorus and intro w/ variation


thatís all 

trevor jones
timmy91199@yahoo.ca
Comments