Creed - Dont Stop Dancing Chords & Tabs

 

Dont Stop Dancing Chords & Tabs

Creed Chords & Tabs

Version: 4 Type: Tab 0 ratings
1 star 2 stars 3 stars 4 stars 5 stars
comments

Dont Stop Dancing Tab

I am 100% sure that this is correct. I have tabbed some other creed songs
if any one is interested. If anyone has any questions at all, my e-mail is
creedfreak@cox.net 

|-----------------------19----19---
|--17-19---20--22------------------ 
|----------------------------------
|---------------------------------- 
|---------------------------------- 
|---------------------------------- 
[ Tab from: http://www.guitartabs.cc/tabs/c/creed/dont_stop_dancing_tab_ver_4.html ]
3x 
|-------------------------------------------------------------------
|------15---------------------15--------------------15---17---15----
|------------14---16-14----------14---16---14-----------------------
|-------------------------------------------------------------------
|-------------------------------------------------------------------
|-------------------------------------------------------------------

|----------------------------------------------------------------------
|-------------------------------------------------------------------17-
|----16-14--16----12--14-15--12-11--11--12---9----7--------------------
|----------------------------------------------------------------------
|----------------------------------------------------------------------
|----------------------------------------------------------------------
Comments