Creed - Dont Stop Dancing Chords & Tabs

 

Dont Stop Dancing Chords & Tabs

Creed Chords & Tabs

Version: 3 Type: Tab 0 ratings
1 star 2 stars 3 stars 4 stars 5 stars
comments

Dont Stop Dancing Tab

Artist: Creed
Song Name: Don't Stop Dancing
Album:  Weathered
Tuning:  DADADD

Submitted by David A


The tabs for this song, on this site, are in Standard tuning.  This is wrong.  
Creed played at the Cowboys halftime show over thanksgiving and they played Higher, 
My Sacrifice, and this song (Don't Stop Dancing).  My Sacrifice is played in DADADD and 
it is easier to play Higher in that tuning.  Mark did not switch guitars so I assumed 
that all the songs were tuned this way and they are.

Verse:

  "At times life is wicked and I just can't see the light"
D--0--------------------------0--------------------0---0-0 
D--5--------------------------4--------------------0---0-0
A--0--------------------------0--------------------3---2-0
D--0--------------------------0--------------------2---0-0
A--0--------------------------0--------------------3---2-0
D--5--------------------------4--------------------0---0-0
         Listen to song for strumming pattern

  "A silver lining sometimes isn't enough to make some...."
  "Whatever life brings, I've been through everything....."
D--0-------------------------0 --------------0-----0------
D--5-------------------------4---------------0----0-0-----
A--0-------------------------0---------------3-------2----
D--0-------------------------0---------------2--------0-0-
A--0-------------------------0---------------3---2-----2--
D--5-------------------------4---------------0------------

Pre-Chorus:
   "But I know I must be strong.................."
D---7---------------0--------------2--------------10----
D---7---------------0--------------2--------------10----
A---7---------------3--------------2--------------10----
D---7---------------0--------------2--------------10----
A---7---------------3--------------2--------------10----
D---7---------------0--------------2--------------10----
         Listen to song for chord changes and pattern

Chorus:

  "Children, don't stop dancin', believe you can fly, away"
D--5------4-0--------------------10--------------5---0---10
D--5------4-0--------------------10--------------5---0---10
A--5------4-3--------------------10--------------5---0---10
D--5------4-0--------------------10--------------5---0---10
A--5------4-3--------------------10--------------5---0---10
D--5------4-0--------------------10--------------5---0---10
              Listen to song for chord changes


Verse 2:
[ Tab from: http://www.guitartabs.cc/tabs/c/creed/dont_stop_dancing_tab_ver_3.html ]
Same as verse 1 but he pickes the chords before the singing and then strums them during the singing parts.

Pre-Chorus: The same as above

Chorus: Same as above

Solo:

  "Away....."            Part 2
D-------------------|-------------------------------------
D--14^--\17---\19^--|--12^----------12^----------(12)--14^ 
A-------------------|------12-14-12-----12-14-12----------
D-------------------|-------------------------------------
A-------------------|-------------------------------------
D-------------------|-------------------------------------

(Repeat solo part 2, three times and on the third time do this)

D-------------------------------------------------------
D--12^----------12^-----------(12)--10------------------
A------12-14-12-----12-14-12-----------12--10--9-10-7-5-
D-------------------------------------------------------
A-------------------------------------------------------
D-------------------------------------------------------

Bridge:

   "Am I hiding in the shadows................"
D--12-------0------10-------5----------------------------
D--12-------0------10-------5----------------------------
A--12-------3------10-------5----------------------------
D--12-------0------10-------5----------------------------
A--12-------3------10-------5----------------------------
D--12-------0------10-------5----------------------------


Slow Part with girl (Scott's wife) singing:
Same as the Pre-Chorus but slow and he picks the chords

Soft chorus:
Same as regular chorus but without distortion

Outro:
Same as verse  


Lyrics:
At times life is wicked and I just can't see the light
A silver lining sometimes isn't enough to make some wrong
Seem right
Whatever life brings, I've been through everything and now I'm on my knees

Pre-Chorus:
But I know I must go on
Although I hurt I must be strong
Because inside I know that many feel this way

Chorus:
Children, don't stop dancing
Believe, you can fly
Away, Away

At times life's unfair and you know it's plain to see
Hey God I know I'm just a dot in this world
Have you forgot about me
Whatever life brings, I've been through everything and now I'm on my knees

Pre-Chorus

Chorus

Am I hiding in the shadows
Forget the pain and forget the sorrows
Am I hiding in the shadows
Forget the pain and forget the sorrows

Pre-chorus

Soft Chorus

Chorus 
Chorus

Outro:
Am I hiding in the shadows
Are we hiding in the shadows


Creed rocks!
Comments