Creed - Bullets Chords & Tabs

 

Bullets Chords & Tabs

Creed Chords & Tabs

Version: 5 Type: Tab 0 ratings
1 star 2 stars 3 stars 4 stars 5 stars
comments

Bullets Tab

   



                                            BULLETS
                                   as written and recorded by Creed

Gtr I (D A D G B E) - 'Mark Tremonti - Rhythm clean electric'
Gtr II (D A D G B E) - 'Mark Tremonti - Rhythm w/dist (Gtr w/dist)'
Gtr III (D A D G B E) - 'Mark Tremonti - Rhythm w/dist'
Gtr IV (D A D G B E) - 'Mark Tremonti - Lead w/dist'
Gtr V (E A D G B E) - 'Mark Tremonti - Lead w/dist and heavey reverb'

Intro
    
   6/8
    Gtr I
    
||--------------------------|-------------------------|
||o-------------------------|-------------------------|
||--------------------------|-------------------------|
||--------------------------|-------------------------|
||o-------------------------|-------------------------|
||--0-0-0-0-0-0-0-0-0-0-0-0-|-0-0-0-0-0-0-0-0-0-0-0-0-|
 |-Rhy Fig 1

  
|-------------------------|--------------------------||
|-------------------------|-------------------------o||
|-------------------------|--------------------------||
|-------------------------|--------------------------||
|-------------------------|-------------------------o||
|-0-0-0-0-0-0-0-0-0-0-0-0-|-0-0-0-0-0-0-0-0-0-0-0-0--||
                                       end Rhy Fig 1-|

     
||----------------------------|----------------------------|
||o---------------------------|----------------------------|
||----------------------------|----------------------------|
||----------------------------|----------------------------|
||o-12-12-12-12-12-12---------|-------------12-12-12-12-12-|
||---0--0--0--0--0--0-0-0-0-0-|-0-0-0-0-0-0--0--0--0--0--0-|
 |-Rhy Fig 2

  
|---------------------------|
|---------------------------|
|---------------------------|
|---------------------------|
|-13-13-13-13-13-13---------|
|--0--0--0--0--0--0-0-0-0-0-|


 
|----------------------------|---------------------------|
|----------------------------|---------------------------|
|----------------------------|---------------------------|
|----------------------------|---------------------------|
|-------------13-13-12-12-12-|-10-10-10-10-10-10---------|
|-0-0-0-0-0-0--0--0--0--0--0-|--0--0--0--0--0--0-0-0-0-0-|


  
|----------------------------|---------------------------|
|----------------------------|---------------------------|
|----------------------------|---------------------------|
|----------------------------|---------------------------|
|-------------10-10-12-12-12-|-13-13-12-12-12-12---------|
|-0-0-0-0-0-0--0--0--0--0--0-|--0--0--0--0--0--0-0-0-0-0-|


 
|----------------------------||
|---------------------------o||
|----------------------------||
|----------------------------||
|---------------------12-12-o||
|-0-0-0-0-0-0-0-0-0-0--0--0--||
               end Rhy Fig 2-|

   
|---------------------------|----------------------------|
|---------------------------|----------------------------|
|---------------------------|----------------------------|
|-14-14-14-14-14-14---------|-------------14-14-14-14-14-|
|-12-12-12-12-12-12---------|-------------12-12-12-12-12-|
|--0--0--0--0--0--0-0-0-0-0-|-0-0-0-0-0-0--0--0--0--0--0-|
|-Rhy Fig 3

 
|-------------------------------|
|-------------------------------|
|-------------------------------|
|-14-14-14-14-14-15-15-15-15-15-|
|-13-13-13-13-13-13-13-13-13-13-|
|--0--0--0--0--0--0--0--0--0--0-|


   
|------------------------|---------------------------|
|------------------------|---------------------------|
|------------------------|-12-12-12-12-12-12---------|
|-15---------------------|--x--x--x--x--x--x---------|
|-13---------------------|-10-10-10-10-10-10---------|
|--0-0-0-0-0-0-0-0-0-0-0-|--0--0--0--0--0--0-0-0-0-0-|


  
|-----------------------------|
|-----------------------------|
|-------------12-12-12-12-12--|
|--------------x--x--x--x--x--|
|-------------10-10-10-10-10--|
|-0-0-0-0-0-0--0--0--0--0--0--|


      <
   
|-------------------------------|-------------------------------||
|-------------------------------|-------------------------------||
|-14-14-14-14-14-14-14-14-14-14-|-15-15-15-15-15-15s17-17-17-17-||
|--x--x--x--x--x--x--x--x--x--x-|--x--x--x--x--x--x--x--x--x--x-||
|-12-12-12-12-12-12-12-12-12-12-|-13-13-13-13-13-13s15-15-15-15-||
|--0--0--0--0--0--0--0--0--0--0-|--0--0--0--0--0--0-------------||
                                                  end Rhy Fig 3-|

    Gtr II
    
||----------------------------------|---------------------------------|
||o---------------------------------|---------------------------------|
||----------------------------------|---------------------------------|
||----------------------------------|---------------------------------|
||o-----------------15--------------|-13------------------------------|
||--13-12-0-12-0-12----12-0-12-0-12-|----12-0-12-0-0-13-12-0-10-12-0--|
 |-Rhy Fig 4

   
|---------------------------------|---------------------------------||
|---------------------------------|--------------------------------o||
|---------------------------------|---------------------------------||
|---------------------------------|---------------------------------||
|-----------------15--------------|-13-----------------------------o||
|-13-12-0-12-0-12----12-0-12-0-12-|----12-0-12-0-0-13-12-0-10-12-0--||
                                                      end Rhy Fig 4-|

   Verses

||--
||o-
||-- Rhy Fig 4 x3.5
||--
||o-
||--



   PM----------|
   
|---------------------------------|--------------------------------||
|---------------------------------|--------------------------------||
|---------------------------------|--------------------------------||
|---------------------------------|--------------------------------||
|-----------------15--------------|-13-----------------------------||
|-13-12-0-12-0-12----12-0-12-0-12-|----12-0-12-0-0-13-12-0-10-12-0-||


 Chorus
  PM--------|        PM----------------------------|        PM--------|
 
|------------------|-------------------|------------------|-------------------|
|------------------|-------------------|------------------|-------------------|
|------------------|-------------------|------------------|-------------------|
|-------------0----|-------------------|-------------0----|-------------0-1---|
|-0-1-0-1-0-1-0----|-0-1-0-1-0-1-0-0-0-|-0-1-0-1-0-1-0----|-0-1-0-1-0-1-0---3-|
|-0-1-0-1-0-1-0----|-0-1-0-1-0-1-0-0-0-|-0-1-0-1-0-1-0----|-0-1-0-1-0-1-0-----|


  PM--------|        PM-----------------
 
|------------------|-------------------|
|------------------|-------------------|
|------------------|-------------------|
|-------------0----|-------------------|
|-0-1-0-1-0-1-0----|-0-1-0-1-0-1-0-0-0-|
|-0-1-0-1-0-1-0----|-0-1-0-1-0-1-0-0-0-|


 -----------|        PM--------------|
  
|------------------|--------------------||
|------------------|-------------------o||
|------------------|--------------------||
|-------------0----|--------------------||
|-0-1-0-1-0-1-0----|-0-1-0-1-0-1-0-0-0-o||
|-0-1-0-1-0-1-0----|-0-1-0-1-0-1-0-0-0--||


                                                     PM--|
   
|---------------------------------|------------------------|
|---------------------------------|------------------------|
|---------------------------------|------------------------|
|-13-12-0-10-12-0-13-12-0-10-12-0-|-13-12-0-10-12-10-------|
|-13-12-0-10-12-0-13-12-0-10-12-0-|-13-12-0-10-12-10-0-0-0-|
|-13-12-0-10-12-0-13-12-0-10-12-0-|-13-12-0-10-12-10-0-0-0-|
|-Rhy Fig 5

   
|---------------------------------|-----------------------|
|---------------------------------|-----------------------|
|---------------------------------|-----------------------|
|-13-12-0-10-12-0-13-12-0-10-12-0-|-13-12-0-10-12-10-0----|
|-13-12-0-10-12-0-13-12-0-10-12-0-|-13-12-0-10-12-10-0----|
|-13-12-0-10-12-0-13-12-0-10-12-0-|-13-12-0-10-12-10-0----|
                                            end Rhy Fig 5-|


w/Rhy Fig 5
|---------------------------------|------------------------|


  Gtr III
                                                     PM---|
  
|---------------------------------|-------------------------||
|---------------------------------|-------------------------||
|---------------------------------|-------------------------||
|-13-12-0-10-12-0-13-12-0-10-12-0-|-13-12-0-10-12-10--------||
|-13-12-0-10-12-0-13-12-0-10-12-0-|-13-12-0-10-12-10-0--0-0-||
|-13-12-0-10-12-0-13-12-0-10-12-0-|-13-12-0-10-12-10-0--0-0-||


 Interlude
w/Rhy Fig 1 x2
  Gtr IV
   \1.5_________________________________________/
   
|------------------------------|-----------------------------|
|------------------------------|-----------------------------|
|------------------------------|-----------------------------|
|------------------------------|-----------------------------|
|---------------------------|-(5)-----------(5)-----------|
|---------------------------|-(5)-----------(5)-----------|
|
| Gtr III
|  
|------------------------------|-----------------------------|
|------------------------------|-----------------------------|
|------------------------------|-----------------------------|
|--0---------------------------|-(0)-------------------------|
|--0---------------------------|-(0)-------------------------|
|--0---------------------------|-(0)-------------------------|


             \1____________/
  
|----------------------------------------|-------------------------------|
|----------------------------------------|-------------------------------|
|----------------------------------------|-------------------------------|
|----------------------------------------|-------------------------------|
|-(5)---------()---()-----------|-()-------------------------|
|-(5)------------------------------------|-------------------------------|
|
| 
|----------------------------------------|-------------------------------|
|----------------------------------------|-------------------------------|
|----------------------------------------|-------------------------------|
|-(0)------------------------------------|--(0)--------------------------|
|-(0)------------------------------------|--(0)--------------------------|
|-(0)------------------------------------|--(0)--------------------------|


         \1____/
   
|----------------------------------------|-----------------------------|
|----------------------------------------|-----------------------------|
|----------------------------------------|-----------------------------|
|---------()-------()-----------|-()-----------------------|
|-------------------------------------|-----------------------------|
|----------------------------------------|-----------------------------|


           \1.5____/
   
|--------------------------------------------|----------------------------------||
|--------------------------------------------|----------------------------------||
|-------------()-------()-----------|-()-----------()------------||
|-()--------------------------------------|----------------------------------||
|--------------------------------------------|----------------------------------||
|--------------------------------------------|----------------------------------||


 Bridge
w/Rhy Fig 2
  Gtr V

|----------------------------|------------------------------|
|----------------------------|------------------------------|
|--9-------------------------|-(9)--------------------------|
|----------------------------|------------------------------|
|----------------------------|------------------------------|
|----------------------------|------------------------------|


  
|----------------------------|---------------------------------|
|----------------------------|---------------------------------|
|-10-------------------------|-(10)-----------10--------9------|
|----------------------------|---------------------------------|
|----------------------------|---------------------------------|
|----------------------------|---------------------------------|

[ Tab from: http://www.guitartabs.cc/tabs/c/creed/bullets_tab_ver_5.html ]
  
|----------------------------|-------------------------------|
|----------------------------|-------------------------------|
|--7-------------------------|-(7)------------9--------------|
|----------------------------|-------------------------------|
|----------------------------|-------------------------------|
|----------------------------|-------------------------------|


 
|-----------------------------|------------------------------|
|-----------------------------|------------------------------|
|-10---------------9----------|-(9)--------------------------|
|-----------------------------|------------------------------|
|-----------------------------|------------------------------|
|-----------------------------|------------------------------|


  Gtr V
                                <
   
|----------------------------|-------------------------------|
|----------------------------|-------------------------------|
|--9-------------------------|-(9)------------9--------------|
|----------------------------|-------------------------------|
|----------------------------|-------------------------------|
|----------------------------|-------------------------------|
|
| Gtr III
|  
|----------------------------|-------------------------------|
|----------------------------|-------------------------------|
|----------------------------|-------------------------------|
|--0-------------------------|-(0)---------------------------|
|--0-------------------------|-(0)---------------------------|
|--0-------------------------|-(0)---------------------------|


   
|--------------------------------|----------------------------|
|--------------------------------|----------------------------|
|-10-----------------------------|-(10)-----------------------|
|--------------------------------|----------------------------|
|--------------------------------|----------------------------|
|--------------------------------|----------------------------|
|
| 
|--------------------------------|----------------------------|
|--------------------------------|----------------------------|
|--------------------------------|----------------------------|
|-(0)----------------------------|--(0)-----------------------|
|-(0)----------------------------|--(0)-----------------------|
|-(0)----------------------------|--(0)-----------------------|


                                    \0.5/                   \0.5/
   
|----------------------------|---------------------------------------|
|----------------------------|---------------------------------------|
|--7-------------------------|-7---(7)-----------9---------(9)-------|
|----------------------------|---------------------------------------|
|----------------------------|---------------------------------------|
|----------------------------|---------------------------------------|
|
|                              PM-------------------------------------
| 
|----------------------------|---------------------------------------|
|----------------------------|---------------------------------------|
|----------------------------|---------------------------------------|
|-(0)------------------------|---------------------------------------|
|-(0)------------------------|-0-0--0-----0-0-0--0-0--0--0--0------0-|
|-(0)------------------------|-0-0--0-----0-0-0--0-0--0--0--0------0-|


                          \0.5/                                    \0.5/     \0.5/
   
|----------------------------------------|---------------------------------------------|
|----------------------------------------|---------------------------------------------|
|-10-----------------9p===7--------------|--9-----------------7---(7)-------(7)--------|
|----------------------------------------|---------------------------------------------|
|----------------------------------------|---------------------------------------------|
|----------------------------------------|---------------------------------------------|
|
|                                           <
|----------------------------------------------------------------------------------|
|  
|----------------------------------------|---------------------------------------------|
|----------------------------------------|---------------------------------------------|
|----------------------------------------|---------------------------------------------|
|----------------------------------------|---------------------------------------------|
|--0--0--0--0--0--0--0-0--0------0--0--0-|--0--0--0--0--0--0--0-0--0------0--0------0--|
|--0--0--0--0--0--0--0-0--0------0--0--0-|--0--0--0--0--0--0--0-0--0------0--0------0--|


  Gtr V
   
|------------------|-----------------------------|
|------------------|-----------------------------|
|--9---------------|--9--------------------------|
|------------------|-----------------------------|
|------------------|-----------------------------|
|------------------|-----------------------------|
|
| Gtr IV
|                     \0.5/  \0.5/    \0.5/
|  
|------------------|-----------------------------|
|------------------|-----------------------------|
|--9---------------|--9s=====7s=======9----------|
|------------------|-----------------------------|
|------------------|-----------------------------|
|------------------|-----------------------------|
|
| Gtr III
|      PM|     PM|           PM----|         PM|
| 
|------------------|-----------------------------|
|------------------|-----------------------------|
|------------------|-----------------------------|
|-14-------14------|-14--------------14----------|
|-12-------12------|-12--------------12----------|
|------0-0-----0-0-|---------0-----0---------0-0-|


   
|-------------------------|----------------------------|
|-------------------------|----------------------------|
|-10----------------------|-10------------10s=12-------|
|-------------------------|----------------------------|
|-------------------------|----------------------------|
|-------------------------|----------------------------|
|
|  \0.5/       \0.5/              \0.5/        \0.5/
|  
|-------------------------|----------------------------|
|-------------------------|----------------------------|
|--9-----------7----------|-(7)--(7)-------7--(7)------|
|-------------------------|----------------------------|
|-------------------------|----------------------------|
|-------------------------|----------------------------|
|
|         PM|         PM|         PM----|      PM----|
|  
|-------------------------|----------------------------|
|-------------------------|----------------------------|
|-------------------------|----------------------------|
|-14----------15----------|-15------------15-----------|
|-13----------13----------|-13------------13-----------|
|---------0-0---------0-0-|-------0-----0------0-----0-|


   
|-------------------------|------------------------------|
|-------------------------|------------------------------|
|-12----------------------|-12---------------------------|
|-------------------------|------------------------------|
|-------------------------|------------------------------|
|-------------------------|------------------------------|
|
|  \0.5/       \0.5/         \0.5/       \0.5/   \0.5/
|  
|-------------------------|------------------------------|
|-------------------------|------------------------------|
|--7-----------7----------|--9-----------7------(7)------|
|-------------------------|------------------------------|
|-------------------------|------------------------------|
|-------------------------|------------------------------|
|
|         PM|         PM|           PM|          PM----|
|  
|-------------------------|------------------------------|
|-------------------------|------------------------------|
|-------------------------|------------------------------|
|-12----------12----------|-12----------12---------------|
|-10----------10----------|-10----------10---------------|
|---------0-0---------0-0-|---------0-0----------0-----0-|


   
|-----------------------------|-------------------------------------------||
|-----------------------------|-------------------------------------------||
|-14--------------------------|-15---------------------17-----------------||
|-----------------------------|-------------------------------------------||
|-----------------------------|-------------------------------------------||
|-----------------------------|-------------------------------------------||
|
|  \0.5/         \0.5/           \0.5/        \0.5/     \0.5/
| 
|-----------------------------|-------------------------------------------||
|-----------------------------|-------------------------------------------||
|--9-------------7------------|--9------------7--------(7)----------------||
|-----------------------------|-------------------------------------------||
|-----------------------------|-------------------------------------------||
|-----------------------------|-------------------------------------------||
|
|  
|-----------------------------|-------------------------------------------||
|-----------------------------|-------------------------------------------||
|-14-----14-14--14-----14-14--|-15-----15-15-15-----15-15s====17-17-17-17-||
|--x------x--x---x------x--x--|--x------x--x--x------x--x------x--x--x--x-||
|-12-----12-12--12-----12-12--|-13-----13-13-13-----13-13s====15-15-15-15-||
|--0------0--0---0------0--0--|--0------0--0--0------0--0-----------------||


   Chorus
    Gtr II
    PM--------|        PM-----------------
    
||-------------------|-------------------|
||o------------------|-------------------|
||-------------------|-------------------|
||--------------0----|-------------------|
||o-0-1-0-1-0-1-0----|-0-1-0-1-0-1-0-0-0-|
||--0-1-0-1-0-1-0----|-0-1-0-1-0-1-0-0-0-|


 -----------|        PM--------|
                                         3x
|------------------|---------------------||
|------------------|--------------------o||
|------------------|---------------------||
|-------------0----|-------------0-1-----||
|-0-1-0-1-0-1-0----|-0-1-0-1-0-1-0---3--o||
|-0-1-0-1-0-1-0----|-0-1-0-1-0-1-0-------||


  PM--------|        PM----------------------------|        PM--------------|
  
|------------------|-------------------|------------------|-------------------||
|------------------|-------------------|------------------|-------------------||
|------------------|-------------------|------------------|-------------------||
|-------------0----|-------------------|-------------0----|-------------------||
|-0-1-0-1-0-1-0----|-0-1-0-1-0-1-0-0-0-|-0-1-0-1-0-1-0----|-0-1-0-1-0-1-0-0-0-||
|-0-1-0-1-0-1-0----|-0-1-0-1-0-1-0-0-0-|-0-1-0-1-0-1-0----|-0-1-0-1-0-1-0-0-0-||


 Outro
   
|---------------------------------|
|---------------------------------|
|---------------------------------|
|-13-12-0-10-12-0-13-12-0-10-12-0-|
|-13-12-0-10-12-0-13-12-0-10-12-0-|
|-13-12-0-10-12-0-13-12-0-10-12-0-|


                   PM--|
   
|------------------------|---------------------------------|
|------------------------|---------------------------------|
|------------------------|---------------------------------|
|-13-12-0-10-12-10-------|-13-12-0-10-12-0-13-12-0-10-12-0-|
|-13-12-0-10-12-10-0-0-0-|-13-12-0-10-12-0-13-12-0-10-12-0-|
|-13-12-0-10-12-10-0-0-0-|-13-12-0-10-12-0-13-12-0-10-12-0-|


   
|-----------------------|---------------------------------|
|-----------------------|---------------------------------|
|-----------------------|---------------------------------|
|-13-12-0-10-12-10-0----|-13-12-0-10-12-0-13-12-0-10-12-0-|
|-13-12-0-10-12-10-0----|-13-12-0-10-12-0-13-12-0-10-12-0-|
|-13-12-0-10-12-10-0----|-13-12-0-10-12-0-13-12-0-10-12-0-|


                   PM--|
  
|------------------------|
|------------------------|
|------------------------|
|-13-12-0-10-12-10-------|
|-13-12-0-10-12-10-0-0-0-|
|-13-12-0-10-12-10-0-0-0-|


  Gtrs II, III
                                                     PM--|
   
|---------------------------------|------------------------|-----------*|
|---------------------------------|------------------------|-----------*|
|---------------------------------|------------------------|-----------*|
|-13-12-0-10-12-0-13-12-0-10-12-0-|-13-12-0-10-12-10-------|-0---------*|
|-13-12-0-10-12-0-13-12-0-10-12-0-|-13-12-0-10-12-10-0-0-0-|-0---------*|
|-13-12-0-10-12-0-13-12-0-10-12-0-|-13-12-0-10-12-10-0-0-0-|-0---------*|
Comments