Creed - Bullets Chords & Tabs

 

Bullets Chords & Tabs

Creed Chords & Tabs

Version: 1 Type: Tab 0 ratings
1 star 2 stars 3 stars 4 stars 5 stars
comments

Bullets Tab

   
Creed 

Bullets

Weathered

I watched their live performance on VH1 and Saturday Night Live and came up with this tab. 
I think it's pretty accurate.  Just listen to the song, and try to get the rhythm.  The sweep
picking is what makes this a hard song to play, but once you get that down....your good to go!!

/ - slide
P.M. - palm mute
Harm.- Harmonics

Intro (listen for rhythm)(Clean)(wha pedal used to change tone)
e|------------------------------------------------------------------------------------------
B|------------------------------------------------------------------------------------------
G|------------------------------------------------------------------------------------------
D|-7-7-7-7-7-7-7-7-7-7-7-8-8-8-8-8-8-8-8-8-8-8-5-5-5-5-5-5-5-5-5-5-5/7-8-7-7-7-7-7-7-7-7-7-7
A|------------------------------------------------------------------------------------------
D|------------------------------------------------------------------------------------------

e|--------------------------------------------------------------------------------------------
B|--------------------------------------------------------------------------------------------
G|-9-9-9-9-9-9-9-9-9-9-9-10-10-10-10-10-10-10-10-10-10-10-7-7-7-7-7-7-7-7-7-7-7/9-10-9-9-9-9-9
D|-7-7-7-7-7-7-7-7-7-7-7--8--8--8--8--8--8--8--8--8--8--8-5-5-5-5-5-5-5-5-5-5-5/7--8-7-7-7-7-7
A|--------------------------------------------------------------------------------------------
D|--------------------------------------------------------------------------------------------

e|--------------------------------------
B|--------------------------------------
G|-9-9-9-9-9-9-9-11-11-13-13------------
D|-7-7-7-7-7-7-7--9--9-11-11------------
A|--------------------------------------
D|--------------------------------------
[ Tab from: http://www.guitartabs.cc/tabs/c/creed/bullets_tab.html ]
Verse 1 (Distortion)(Sweep Picking)
e|------------------------------------------------------
B|------------------------------------------------------
G|------------------------------------------------------
D|------------------------------------------------------
A|---------------15----------------13-------------------
D|-13-12-12-12-------12-12-12-12-------13-12-10-10-10---

Verse 2 (Palm Mute Throughout)
e|------------------------------------------------------
B|------------------------------------------------------
G|------------------------------------------------------
D|------------------------------------------------------
A|---------------15----------------13-------------------
D|-13-12-12-12-------12-12-12-12-------13-12-10-10-10---
   PM.........       ............      ...............

Chorus (Heavy Distotion)
e|------------------------------------
B|------------------------------------
G|------------------------------------
D|------------------------------------
A|-1-2-2-1-0-1----1-2-2-1-0-1-0-1-----
D|-1-2-2-1-0-1----1-2-2-1-0-1-0-1-----
   PM.......    PM.............

Harmonic Chorus Riff
e|------------------------------------
B|------------------------------------
G|------------------------------------
D|------------------------------------
A|-1-2-2-1-0-1----1-2-2-1-0-----------
D|-1-2-2-1-0-1----1-2-2-1-0---3-4-5---
   PM.......    PM....... Harm......

Pre-Bridge (Sweep picking)
e|---------------------------
B|---------------------------
G|---------------------------
D|-13-12-10-12-10-10--0--0--0
A|-13-12-10-12-10-10--0--0--0
D|-13-12-10-12-10-10--0--0--0
                      PM.....

Repeat Intro 

Bridge (Distortion) (Rhythm is key to this verse)
e|-----------------------------------------------------------------------------------------
B|-----------------------------------------------------------------------------------------
G|-9-----9-----9-----9-----10----10----10----10-------12-------12-------12-------12--------
D|-7-7-7-7-7-7-7-7-7-7--8-8-8-8-8-8-8-8-8-8-8-8-10-10-10-10-10-10-10-10-10-10-10-10--------
A|-7-7-7-7-7-7-7-7-7-7--8-8-8-8-8-8-8-8-8-8-8-8-10-10-10-10-10-10-10-10-10-10-10-10--------
D|-7-7-7-7-7-7-7-7-7-7--8-8-8-8-8-8-8-8-8-8-8-8-10-10-10-10-10-10-10-10-10-10-10-10--------
     PM.   PM.   PM.    PM.   PM.   PM.   PM.   PM...    PM...    PM...    PM...

e|-----------
B|-----------
G|-14--15--17
D|-12--13--15
A|-12--13--15
D|-12--13--15


Then Repeat Chorus

Then Repeat Pre-Bridge to end song



Comments