Creed - Beautiful Chords & Tabs

 

Beautiful Chords & Tabs

Creed Chords & Tabs

Version: 3 Type: Bass Tab 0 ratings
1 star 2 stars 3 stars 4 stars 5 stars
comments

Beautiful Bass Tab

   
Song:Beautiful
Band:Creed
Album:Human Clay
Tabbed By:Fernando Delagdo
Creed is an awesome band, so i dont feel so bad about it. Not that i did 
anyway.

Tuning: Dropped D (as usual) Low to High: D A D G

Intro:"She wears a coat of colors...."

G-----------------------
D-----------------------
A-5-5---5-5--5-5---5-5-- <-4 time
D-----------------------

Break Part:Wait for guitar riff then play:

G--------------------------------------------------
D--------------3----3h5----2-----------------------
A-------------------------------3h5-5-5------------ play 1x
D-1--1--1--0-0--0-0----0-0--0-0---------0-0-1-1-1-1-


1st Verse(i think it is anyway):"Lust she breeds in the eyes..."

G----------------------
D----------------------
A-5-5---5-5--5-5---5-5- play 4x
D----------------------

Chorus:"The beautiful..."

G--------------------------------------------------
D--------------3----3h5----2-----------------------
A-------------------------------3h5-5-5------------ play 3x
D-1--1--1--0-0--0-0----0-0--0-0---------0-0-1-1-1-1-

Bridge:"Stripped me..."

G----------
D----------
A--------5- play 8x
D-0-0--0---

2nd Verse:"In your mind shes your companion..."

G-----------------------
D-----------------------
A-5-5---5-5--5-5---5-5-- play 10x
D-----------------------

2nd Chorus:"The beautiful..."
[ Tab from: http://www.guitartabs.cc/tabs/c/creed/beautiful_btab_ver_3.html ]
G--------------------------------------------------
D--------------3----3h5----2-----------------------
A-------------------------------3h5-5-5------------ play 3x
D-1--1--1--0-0--0-0----0-0--0-0---------0-0-1-1-1-1-

Bridge:"Stripped me..."

G----------
D----------
A--------5- play 14x?
D-0-0--0---

Ending part of Verse Interlude:

G----------------------------------------
D----------------------------------------
A-5-5-5-5-5-5-5-5\10-10-10-10-10/9-9-9-9- play 1x
D----------------------------------------

Interlude:"She told me where im going..."

G----------------------------------------------------------------------------------
D-----------------------------------------------------------------7-5-4-5--7-7-7-7-
A----------------------2--2-2-2--2-2-2-2-2-2-5--4h5--5-5-5-5--5-0--------0--------- 
play 3x
D-5--5-5-5-4h5-5-5-5-5-------------------------------------------------------------

Chorus:"The beautiful...."

G--------------------------------------------------
D--------------3----3h5----2-----------------------
A-------------------------------3h5-5-5------------ play 4x
D-1--1--1--0-0--0-0----0-0--0-0---------0-0-1-1-1-1-

Bridge:"Stripped me..."

G----------
D----------
A--------5- play 10x?
D-0-0--0---

End Part:

G---------------------------------
D---------------------------------
A-5-5-5-5-5-5-5-5-5--5--5--5--5--- play 1x
D-------------------------------0-


Is easy ,try it and practice

Thanx
Comments